ISO-10303-21;
HEADER;
FILE_DESCRIPTION((''),'2;1');
FILE_NAME('1015','2022-04-18T11:53:35',('Gogel'),
('Gerresheimer Regensburg GmbH'),'CREO PARAMETRIC BY PTC INC, 2018420',
'CREO PARAMETRIC BY PTC INC, 2018420','');
FILE_SCHEMA(('AUTOMOTIVE_DESIGN { 1 0 10303 214 1 1 1 1 }'));
ENDSEC;
DATA;
#46=CARTESIAN_POINT('',(3.15E1,1.9E1,0.E0));
#47=DIRECTION('',(0.E0,0.E0,1.E0));
#48=DIRECTION('',(1.E0,0.E0,0.E0));
#49=AXIS2_PLACEMENT_3D('',#46,#47,#48);
#51=DIRECTION('',(0.E0,1.E0,0.E0));
#52=VECTOR('',#51,3.8E1);
#53=CARTESIAN_POINT('',(3.25E1,-1.9E1,0.E0));
#54=LINE('',#53,#52);
#55=CARTESIAN_POINT('',(3.15E1,-1.9E1,0.E0));
#56=DIRECTION('',(0.E0,0.E0,1.E0));
#57=DIRECTION('',(0.E0,-1.E0,0.E0));
#58=AXIS2_PLACEMENT_3D('',#55,#56,#57);
#60=DIRECTION('',(1.E0,0.E0,0.E0));
#61=VECTOR('',#60,6.3E1);
#62=CARTESIAN_POINT('',(-3.15E1,-2.E1,0.E0));
#63=LINE('',#62,#61);
#64=CARTESIAN_POINT('',(-3.15E1,-1.9E1,0.E0));
#65=DIRECTION('',(0.E0,0.E0,1.E0));
#66=DIRECTION('',(-1.E0,0.E0,0.E0));
#67=AXIS2_PLACEMENT_3D('',#64,#65,#66);
#69=DIRECTION('',(0.E0,-1.E0,0.E0));
#70=VECTOR('',#69,3.8E1);
#71=CARTESIAN_POINT('',(-3.25E1,1.9E1,0.E0));
#72=LINE('',#71,#70);
#73=CARTESIAN_POINT('',(-3.15E1,1.9E1,0.E0));
#74=DIRECTION('',(0.E0,0.E0,1.E0));
#75=DIRECTION('',(0.E0,1.E0,0.E0));
#76=AXIS2_PLACEMENT_3D('',#73,#74,#75);
#78=DIRECTION('',(-1.E0,0.E0,0.E0));
#79=VECTOR('',#78,6.3E1);
#80=CARTESIAN_POINT('',(3.15E1,2.E1,0.E0));
#81=LINE('',#80,#79);
#82=CARTESIAN_POINT('',(3.15E1,1.9E1,-2.E0));
#83=DIRECTION('',(0.E0,0.E0,-1.E0));
#84=DIRECTION('',(0.E0,1.E0,0.E0));
#85=AXIS2_PLACEMENT_3D('',#82,#83,#84);
#87=DIRECTION('',(-1.E0,0.E0,0.E0));
#88=VECTOR('',#87,6.3E1);
#89=CARTESIAN_POINT('',(3.15E1,2.E1,-2.E0));
#90=LINE('',#89,#88);
#91=CARTESIAN_POINT('',(-3.15E1,1.9E1,-2.E0));
#92=DIRECTION('',(0.E0,0.E0,-1.E0));
#93=DIRECTION('',(-1.E0,0.E0,0.E0));
#94=AXIS2_PLACEMENT_3D('',#91,#92,#93);
#96=DIRECTION('',(0.E0,-1.E0,0.E0));
#97=VECTOR('',#96,3.8E1);
#98=CARTESIAN_POINT('',(-3.25E1,1.9E1,-2.E0));
#99=LINE('',#98,#97);
#100=CARTESIAN_POINT('',(-3.15E1,-1.9E1,-2.E0));
#101=DIRECTION('',(0.E0,0.E0,-1.E0));
#102=DIRECTION('',(0.E0,-1.E0,0.E0));
#103=AXIS2_PLACEMENT_3D('',#100,#101,#102);
#105=DIRECTION('',(1.E0,0.E0,0.E0));
#106=VECTOR('',#105,6.3E1);
#107=CARTESIAN_POINT('',(-3.15E1,-2.E1,-2.E0));
#108=LINE('',#107,#106);
#109=CARTESIAN_POINT('',(3.15E1,-1.9E1,-2.E0));
#110=DIRECTION('',(0.E0,0.E0,-1.E0));
#111=DIRECTION('',(1.E0,0.E0,0.E0));
#112=AXIS2_PLACEMENT_3D('',#109,#110,#111);
#114=DIRECTION('',(0.E0,1.E0,0.E0));
#115=VECTOR('',#114,3.8E1);
#116=CARTESIAN_POINT('',(3.25E1,-1.9E1,-2.E0));
#117=LINE('',#116,#115);
#118=DIRECTION('',(0.E0,0.E0,-1.E0));
#119=VECTOR('',#118,2.E0);
#120=CARTESIAN_POINT('',(3.15E1,2.E1,0.E0));
#121=LINE('',#120,#119);
#122=DIRECTION('',(0.E0,0.E0,-1.E0));
#123=VECTOR('',#122,2.E0);
#124=CARTESIAN_POINT('',(-3.15E1,2.E1,0.E0));
#125=LINE('',#124,#123);
#126=DIRECTION('',(0.E0,0.E0,-1.E0));
#127=VECTOR('',#126,2.E0);
#128=CARTESIAN_POINT('',(-3.25E1,-1.9E1,0.E0));
#129=LINE('',#128,#127);
#130=DIRECTION('',(0.E0,0.E0,-1.E0));
#131=VECTOR('',#130,2.E0);
#132=CARTESIAN_POINT('',(-3.25E1,1.9E1,0.E0));
#133=LINE('',#132,#131);
#134=DIRECTION('',(0.E0,0.E0,-1.E0));
#135=VECTOR('',#134,2.E0);
#136=CARTESIAN_POINT('',(3.15E1,-2.E1,0.E0));
#137=LINE('',#136,#135);
#138=DIRECTION('',(0.E0,0.E0,-1.E0));
#139=VECTOR('',#138,2.E0);
#140=CARTESIAN_POINT('',(-3.15E1,-2.E1,0.E0));
#141=LINE('',#140,#139);
#142=DIRECTION('',(0.E0,0.E0,-1.E0));
#143=VECTOR('',#142,2.E0);
#144=CARTESIAN_POINT('',(3.25E1,1.9E1,0.E0));
#145=LINE('',#144,#143);
#146=DIRECTION('',(0.E0,0.E0,-1.E0));
#147=VECTOR('',#146,2.E0);
#148=CARTESIAN_POINT('',(3.25E1,-1.9E1,0.E0));
#149=LINE('',#148,#147);
#150=CARTESIAN_POINT('',(3.15E1,2.E1,-2.E0));
#151=CARTESIAN_POINT('',(3.25E1,1.9E1,-2.E0));
#152=VERTEX_POINT('',#150);
#153=VERTEX_POINT('',#151);
#154=CARTESIAN_POINT('',(3.25E1,1.9E1,0.E0));
#155=VERTEX_POINT('',#154);
#156=CARTESIAN_POINT('',(3.15E1,2.E1,0.E0));
#157=VERTEX_POINT('',#156);
#158=CARTESIAN_POINT('',(3.25E1,-1.9E1,-2.E0));
#159=CARTESIAN_POINT('',(3.15E1,-2.E1,-2.E0));
#160=VERTEX_POINT('',#158);
#161=VERTEX_POINT('',#159);
#162=CARTESIAN_POINT('',(3.15E1,-2.E1,0.E0));
#163=VERTEX_POINT('',#162);
#164=CARTESIAN_POINT('',(3.25E1,-1.9E1,0.E0));
#165=VERTEX_POINT('',#164);
#166=CARTESIAN_POINT('',(-3.15E1,-2.E1,-2.E0));
#167=CARTESIAN_POINT('',(-3.25E1,-1.9E1,-2.E0));
#168=VERTEX_POINT('',#166);
#169=VERTEX_POINT('',#167);
#170=CARTESIAN_POINT('',(-3.25E1,-1.9E1,0.E0));
#171=VERTEX_POINT('',#170);
#172=CARTESIAN_POINT('',(-3.15E1,-2.E1,0.E0));
#173=VERTEX_POINT('',#172);
#174=CARTESIAN_POINT('',(-3.25E1,1.9E1,-2.E0));
#175=CARTESIAN_POINT('',(-3.15E1,2.E1,-2.E0));
#176=VERTEX_POINT('',#174);
#177=VERTEX_POINT('',#175);
#178=CARTESIAN_POINT('',(-3.15E1,2.E1,0.E0));
#179=VERTEX_POINT('',#178);
#180=CARTESIAN_POINT('',(-3.25E1,1.9E1,0.E0));
#181=VERTEX_POINT('',#180);
#182=CARTESIAN_POINT('',(0.E0,0.E0,0.E0));
#183=DIRECTION('',(0.E0,0.E0,1.E0));
#184=DIRECTION('',(1.E0,0.E0,0.E0));
#185=AXIS2_PLACEMENT_3D('',#182,#183,#184);
#186=PLANE('',#185);
#188=ORIENTED_EDGE('',*,*,#187,.F.);
#190=ORIENTED_EDGE('',*,*,#189,.F.);
#192=ORIENTED_EDGE('',*,*,#191,.F.);
#194=ORIENTED_EDGE('',*,*,#193,.F.);
#196=ORIENTED_EDGE('',*,*,#195,.F.);
#198=ORIENTED_EDGE('',*,*,#197,.F.);
#200=ORIENTED_EDGE('',*,*,#199,.F.);
#202=ORIENTED_EDGE('',*,*,#201,.F.);
#203=EDGE_LOOP('',(#188,#190,#192,#194,#196,#198,#200,#202));
#204=FACE_OUTER_BOUND('',#203,.F.);
#206=CARTESIAN_POINT('',(3.15E1,1.9E1,2.6072E0));
#207=DIRECTION('',(0.E0,0.E0,-1.E0));
#208=DIRECTION('',(0.E0,1.E0,0.E0));
#209=AXIS2_PLACEMENT_3D('',#206,#207,#208);
#210=CYLINDRICAL_SURFACE('',#209,1.E0);
#212=ORIENTED_EDGE('',*,*,#211,.T.);
#214=ORIENTED_EDGE('',*,*,#213,.F.);
#215=ORIENTED_EDGE('',*,*,#187,.T.);
#217=ORIENTED_EDGE('',*,*,#216,.T.);
#218=EDGE_LOOP('',(#212,#214,#215,#217));
#219=FACE_OUTER_BOUND('',#218,.F.);
#221=CARTESIAN_POINT('',(0.E0,0.E0,-2.E0));
#222=DIRECTION('',(0.E0,0.E0,1.E0));
#223=DIRECTION('',(1.E0,0.E0,0.E0));
#224=AXIS2_PLACEMENT_3D('',#221,#222,#223);
#225=PLANE('',#224);
#226=ORIENTED_EDGE('',*,*,#211,.F.);
#228=ORIENTED_EDGE('',*,*,#227,.T.);
#230=ORIENTED_EDGE('',*,*,#229,.F.);
#232=ORIENTED_EDGE('',*,*,#231,.T.);
#234=ORIENTED_EDGE('',*,*,#233,.F.);
#236=ORIENTED_EDGE('',*,*,#235,.T.);
#238=ORIENTED_EDGE('',*,*,#237,.F.);
#240=ORIENTED_EDGE('',*,*,#239,.T.);
#241=EDGE_LOOP('',(#226,#228,#230,#232,#234,#236,#238,#240));
#242=FACE_OUTER_BOUND('',#241,.F.);
#244=CARTESIAN_POINT('',(3.25E1,2.E1,0.E0));
#245=DIRECTION('',(0.E0,1.E0,0.E0));
#246=DIRECTION('',(-1.E0,0.E0,0.E0));
#247=AXIS2_PLACEMENT_3D('',#244,#245,#246);
#248=PLANE('',#247);
#249=ORIENTED_EDGE('',*,*,#216,.F.);
#250=ORIENTED_EDGE('',*,*,#201,.T.);
#252=ORIENTED_EDGE('',*,*,#251,.T.);
#253=ORIENTED_EDGE('',*,*,#227,.F.);
#254=EDGE_LOOP('',(#249,#250,#252,#253));
#255=FACE_OUTER_BOUND('',#254,.F.);
#257=CARTESIAN_POINT('',(-3.15E1,1.9E1,2.6072E0));
#258=DIRECTION('',(0.E0,0.E0,-1.E0));
#259=DIRECTION('',(-1.E0,0.E0,0.E0));
#260=AXIS2_PLACEMENT_3D('',#257,#258,#259);
#261=CYLINDRICAL_SURFACE('',#260,1.E0);
#262=ORIENTED_EDGE('',*,*,#229,.T.);
#263=ORIENTED_EDGE('',*,*,#251,.F.);
#264=ORIENTED_EDGE('',*,*,#199,.T.);
#266=ORIENTED_EDGE('',*,*,#265,.T.);
#267=EDGE_LOOP('',(#262,#263,#264,#266));
#268=FACE_OUTER_BOUND('',#267,.F.);
#270=CARTESIAN_POINT('',(-3.25E1,2.E1,0.E0));
#271=DIRECTION('',(-1.E0,0.E0,0.E0));
#272=DIRECTION('',(0.E0,-1.E0,0.E0));
#273=AXIS2_PLACEMENT_3D('',#270,#271,#272);
#274=PLANE('',#273);
#276=ORIENTED_EDGE('',*,*,#275,.T.);
#277=ORIENTED_EDGE('',*,*,#231,.F.);
#278=ORIENTED_EDGE('',*,*,#265,.F.);
#279=ORIENTED_EDGE('',*,*,#197,.T.);
#280=EDGE_LOOP('',(#276,#277,#278,#279));
#281=FACE_OUTER_BOUND('',#280,.F.);
#283=CARTESIAN_POINT('',(-3.15E1,-1.9E1,2.6072E0));
#284=DIRECTION('',(0.E0,0.E0,-1.E0));
#285=DIRECTION('',(0.E0,-1.E0,0.E0));
#286=AXIS2_PLACEMENT_3D('',#283,#284,#285);
#287=CYLINDRICAL_SURFACE('',#286,1.E0);
#288=ORIENTED_EDGE('',*,*,#233,.T.);
#289=ORIENTED_EDGE('',*,*,#275,.F.);
#290=ORIENTED_EDGE('',*,*,#195,.T.);
#292=ORIENTED_EDGE('',*,*,#291,.T.);
#293=EDGE_LOOP('',(#288,#289,#290,#292));
#294=FACE_OUTER_BOUND('',#293,.F.);
#296=CARTESIAN_POINT('',(-3.25E1,-2.E1,0.E0));
#297=DIRECTION('',(0.E0,-1.E0,0.E0));
#298=DIRECTION('',(1.E0,0.E0,0.E0));
#299=AXIS2_PLACEMENT_3D('',#296,#297,#298);
#300=PLANE('',#299);
#302=ORIENTED_EDGE('',*,*,#301,.T.);
#303=ORIENTED_EDGE('',*,*,#235,.F.);
#304=ORIENTED_EDGE('',*,*,#291,.F.);
#305=ORIENTED_EDGE('',*,*,#193,.T.);
#306=EDGE_LOOP('',(#302,#303,#304,#305));
#307=FACE_OUTER_BOUND('',#306,.F.);
#309=CARTESIAN_POINT('',(3.15E1,-1.9E1,2.6072E0));
#310=DIRECTION('',(0.E0,0.E0,-1.E0));
#311=DIRECTION('',(1.E0,0.E0,0.E0));
#312=AXIS2_PLACEMENT_3D('',#309,#310,#311);
#313=CYLINDRICAL_SURFACE('',#312,1.E0);
#314=ORIENTED_EDGE('',*,*,#237,.T.);
#315=ORIENTED_EDGE('',*,*,#301,.F.);
#316=ORIENTED_EDGE('',*,*,#191,.T.);
#318=ORIENTED_EDGE('',*,*,#317,.T.);
#319=EDGE_LOOP('',(#314,#315,#316,#318));
#320=FACE_OUTER_BOUND('',#319,.F.);
#322=CARTESIAN_POINT('',(3.25E1,-2.E1,0.E0));
#323=DIRECTION('',(1.E0,0.E0,0.E0));
#324=DIRECTION('',(0.E0,1.E0,0.E0));
#325=AXIS2_PLACEMENT_3D('',#322,#323,#324);
#326=PLANE('',#325);
#327=ORIENTED_EDGE('',*,*,#213,.T.);
#328=ORIENTED_EDGE('',*,*,#239,.F.);
#329=ORIENTED_EDGE('',*,*,#317,.F.);
#330=ORIENTED_EDGE('',*,*,#189,.T.);
#331=EDGE_LOOP('',(#327,#328,#329,#330));
#332=FACE_OUTER_BOUND('',#331,.F.);
#334=CLOSED_SHELL('',(#205,#220,#243,#256,#269,#282,#295,#308,#321,#333));
#335=MANIFOLD_SOLID_BREP('',#334);
#336=CARTESIAN_POINT('',(0.E0,0.E0,0.E0));
#337=DIRECTION('',(0.E0,0.E0,1.E0));
#338=DIRECTION('',(1.E0,0.E0,0.E0));
#339=AXIS2_PLACEMENT_3D('X0Y0Z0',#336,#337,#338);
#340=DRAUGHTING_PRE_DEFINED_CURVE_FONT('continuous');
#341=CURVE_STYLE('',#340,POSITIVE_LENGTH_MEASURE(2.E-2),#18);
#342=PRESENTATION_STYLE_ASSIGNMENT((#341));
#343=STYLED_ITEM('',(#342),#339);
#344=CARTESIAN_POINT('',(0.E0,0.E0,0.E0));
#345=DIRECTION('',(1.E0,0.E0,0.E0));
#346=DIRECTION('',(0.E0,1.E0,0.E0));
#347=AXIS2_PLACEMENT_3D('',#344,#345,#346);
#348=PLANE('RECHTS',#347);
#349=CARTESIAN_POINT('',(0.E0,0.E0,0.E0));
#350=DIRECTION('',(0.E0,1.E0,0.E0));
#351=DIRECTION('',(0.E0,0.E0,1.E0));
#352=AXIS2_PLACEMENT_3D('',#349,#350,#351);
#353=PLANE('OBEN',#352);
#354=CARTESIAN_POINT('',(0.E0,0.E0,0.E0));
#355=DIRECTION('',(0.E0,0.E0,1.E0));
#356=DIRECTION('',(1.E0,0.E0,0.E0));
#357=AXIS2_PLACEMENT_3D('',#354,#355,#356);
#358=PLANE('VORNE',#357);
#359=DIRECTION('',(-1.E0,0.E0,0.E0));
#360=VECTOR('',#359,6.5E1);
#361=CARTESIAN_POINT('',(3.25E1,0.E0,0.E0));
#362=LINE('',#361,#360);
#364=CURVE_STYLE('',#340,POSITIVE_LENGTH_MEASURE(2.E-2),#39);
#365=PRESENTATION_STYLE_ASSIGNMENT((#364));
#366=STYLED_ITEM('',(#365),#363);
#367=DIRECTION('',(0.E0,-1.E0,0.E0));
#368=VECTOR('',#367,4.E1);
#369=CARTESIAN_POINT('',(0.E0,2.E1,0.E0));
#370=LINE('',#369,#368);
#372=CURVE_STYLE('',#340,POSITIVE_LENGTH_MEASURE(2.E-2),#39);
#373=PRESENTATION_STYLE_ASSIGNMENT((#372));
#374=STYLED_ITEM('',(#373),#371);
#375=DIRECTION('',(0.E0,0.E0,-1.E0));
#376=VECTOR('',#375,2.E0);
#377=CARTESIAN_POINT('',(0.E0,0.E0,0.E0));
#378=LINE('',#377,#376);
#380=CURVE_STYLE('',#340,POSITIVE_LENGTH_MEASURE(2.E-2),#39);
#381=PRESENTATION_STYLE_ASSIGNMENT((#380));
#382=STYLED_ITEM('',(#381),#379);
#383=PRESENTATION_LAYER_ASSIGNMENT('S-ACHSEN','',(#363,#371,#379));
#384=PRESENTATION_LAYER_ASSIGNMENT('S-EBENEN','',(#348,#353,#358));
#385=PRESENTATION_LAYER_ASSIGNMENT('S-KOORDSYS','',(#339));
#386=INVISIBILITY((#383,#385));
#389=PLANE_ANGLE_MEASURE_WITH_UNIT(PLANE_ANGLE_MEASURE(1.745329251994E-2),#388);
#390=(CONVERSION_BASED_UNIT('DEGREE',#389)NAMED_UNIT(*)PLANE_ANGLE_UNIT());
#392=UNCERTAINTY_MEASURE_WITH_UNIT(LENGTH_MEASURE(5.E-3),#387,
'distance_accuracy_value',
'Maximum model space distance between geometric entities at asserted connectivities');
#396=CARTESIAN_POINT('',(0.E0,0.E0,0.E0));
#397=DIRECTION('',(0.E0,0.E0,1.E0));
#398=DIRECTION('',(1.E0,0.E0,0.E0));
#401=SHAPE_REPRESENTATION_RELATIONSHIP('','',#400,#394);
#402=CONSTRUCTIVE_GEOMETRY_REPRESENTATION_RELATIONSHIP('','',#400,#395);
#403=MECHANICAL_DESIGN_GEOMETRIC_PRESENTATION_REPRESENTATION('',(#343,#366,#374,
#382),#393);
#404=APPLICATION_CONTEXT('automotive_design');
#405=APPLICATION_PROTOCOL_DEFINITION('international standard',
'automotive_design',2001,#404);
#406=PRODUCT_DEFINITION_CONTEXT('part definition',#404,'design');
#407=PRODUCT_CONTEXT('',#404,'mechanical');
#408=PRODUCT('1015','1015','NOT SPECIFIED',(#407));
#409=PRODUCT_DEFINITION_FORMATION('1','LAST_VERSION',#408);
#417=DERIVED_UNIT_ELEMENT(#416,2.E0);
#418=DERIVED_UNIT((#417));
#419=MEASURE_REPRESENTATION_ITEM('surface area measure',AREA_MEASURE(
5.614849555905E3),#418);
#424=DERIVED_UNIT_ELEMENT(#423,3.E0);
#425=DERIVED_UNIT((#424));
#426=MEASURE_REPRESENTATION_ITEM('volume measure',VOLUME_MEASURE(
5.198283152946E3),#425);
#430=CARTESIAN_POINT('centre point',(1.721681654163E-14,0.E0,-1.E0));
#435=DERIVED_UNIT_ELEMENT(#434,2.E0);
#436=DERIVED_UNIT((#435));
#437=MEASURE_REPRESENTATION_ITEM('surface area measure',AREA_MEASURE(
5.614849555905E3),#436);
#442=DERIVED_UNIT_ELEMENT(#441,3.E0);
#443=DERIVED_UNIT((#442));
#444=MEASURE_REPRESENTATION_ITEM('volume measure',VOLUME_MEASURE(
5.198283152946E3),#443);
#448=CARTESIAN_POINT('centre point',(1.721681654163E-14,0.E0,-1.E0));
#453=PRODUCT_RELATED_PRODUCT_CATEGORY('part','',(#408));
#454=(GEOMETRIC_REPRESENTATION_CONTEXT(2)PARAMETRIC_REPRESENTATION_CONTEXT()REPRESENTATION_CONTEXT('2D coordinate system context','2'));
#455=DRAUGHTING_MODEL('Default',(#467,#468,#484),#454);
#456=PRESENTATION_VIEW('Default',(#475,#488),#454);
#457=CARTESIAN_POINT('',(0.E0,0.E0,0.E0));
#458=CARTESIAN_POINT('',(-4.076840309441E1,-3.396551741255E1,1.552429116293E2));
#459=DIRECTION('',(0.E0,0.E0,1.E0));
#460=DIRECTION('',(1.E0,0.E0,0.E0));
#461=AXIS2_PLACEMENT_3D('',#458,#459,#460);
#463=VIEW_VOLUME(.PARALLEL.,#457,1.552429116293E2,1.552429116293E2,.T.,0.E0,.F.,
.T.,#462);
#464=CARTESIAN_POINT('',(-1.086311571809E2,6.122075299726E1,1.066178773335E2));
#465=DIRECTION('',(-4.095760221445E-1,5.735764363510E-1,7.094064799162E-1));
#466=DIRECTION('',(8.660254037844E-1,0.E0,5.E-1));
#467=AXIS2_PLACEMENT_3D('',#464,#465,#466);
#468=CAMERA_MODEL_D3_WITH_HLHSR('DEFAULT',#467,#463,.F.);
#470=CARTESIAN_POINT('',(-5.105747691816E2,-4.253768825059E2,1.944229053776E3));
#471=DIRECTION('',(0.E0,0.E0,1.E0));
#472=DIRECTION('',(1.E0,0.E0,0.E0));
#473=AXIS2_PLACEMENT_3D('',#470,#471,#472);
#475=(CAMERA_IMAGE()CAMERA_IMAGE_3D_WITH_SCALE()GEOMETRIC_REPRESENTATION_ITEM()MAPPED_ITEM(#469,#474)REPRESENTATION_ITEM(''));
#476=CARTESIAN_POINT('',(-4.076840309441E1,-3.396551741255E1,1.552429116293E2));
#477=DIRECTION('',(0.E0,0.E0,1.E0));
#478=DIRECTION('',(1.E0,0.E0,0.E0));
#479=AXIS2_PLACEMENT_3D('',#476,#477,#478);
#480=REPRESENTATION_MAP(#479,#400);
#481=CARTESIAN_POINT('',(0.E0,0.E0));
#482=DIRECTION('',(1.E0,0.E0));
#483=AXIS2_PLACEMENT_2D('',#481,#482);
#484=MAPPED_ITEM('',#480,#483);
#485=CARTESIAN_POINT('',(-4.076840309441E1,-3.396551741255E1,1.552429116293E2));
#486=DIRECTION('',(0.E0,0.E0,1.E0));
#487=DIRECTION('',(1.E0,0.E0,0.E0));
#488=AXIS2_PLACEMENT_3D('',#485,#486,#487);
#489=REPRESENTATION_MAP(#488,#456);
#490=CARTESIAN_POINT('',(0.E0,0.E0));
#491=DIRECTION('',(1.E0,0.E0));
#492=AXIS2_PLACEMENT_2D('',#490,#491);
#493=MAPPED_ITEM('',#489,#492);
#495=CARTESIAN_POINT('',(0.E0,0.E0));
#496=DIRECTION('',(1.E0,0.E0));
#497=AXIS2_PLACEMENT_2D('',#495,#496);
#498=PLANAR_BOX('',1.E3,8.4375E2,#497);
#499=PRESENTATION_SIZE(#494,#498);
#500=PRESENTATION_SET();
#501=AREA_IN_SET(#494,#500);
#503=GENERAL_PROPERTY('','MOD_POSITION','user defined attribute');
#504=GENERAL_PROPERTY_ASSOCIATION('user defined attribute','',#503,#502);
#505=DESCRIPTIVE_REPRESENTATION_ITEM('MOD_POSITION','1015');
#509=GENERAL_PROPERTY('','MOD_STUECK','user defined attribute');
#510=GENERAL_PROPERTY_ASSOCIATION('user defined attribute','',#509,#508);
#511=DESCRIPTIVE_REPRESENTATION_ITEM('MOD_STUECK','-');
#515=GENERAL_PROPERTY('','MOD_BENENNUNG','user defined attribute');
#516=GENERAL_PROPERTY_ASSOCIATION('user defined attribute','',#515,#514);
#517=DESCRIPTIVE_REPRESENTATION_ITEM('MOD_BENENNUNG','-');
#521=GENERAL_PROPERTY('','MOD_ABMESSUNGEN','user defined attribute');
#522=GENERAL_PROPERTY_ASSOCIATION('user defined attribute','',#521,#520);
#523=DESCRIPTIVE_REPRESENTATION_ITEM('MOD_ABMESSUNGEN','-');
#527=GENERAL_PROPERTY('','MOD_MATERIAL','user defined attribute');
#528=GENERAL_PROPERTY_ASSOCIATION('user defined attribute','',#527,#526);
#529=DESCRIPTIVE_REPRESENTATION_ITEM('MOD_MATERIAL','-');
#533=GENERAL_PROPERTY('','MOD_HAERTE','user defined attribute');
#534=GENERAL_PROPERTY_ASSOCIATION('user defined attribute','',#533,#532);
#535=DESCRIPTIVE_REPRESENTATION_ITEM('MOD_HAERTE','- HRC');
#539=GENERAL_PROPERTY('','MOD_LIEFERANT','user defined attribute');
#540=GENERAL_PROPERTY_ASSOCIATION('user defined attribute','',#539,#538);
#541=DESCRIPTIVE_REPRESENTATION_ITEM('MOD_LIEFERANT','-');
#545=GENERAL_PROPERTY('','MOD_WG_NR','user defined attribute');
#546=GENERAL_PROPERTY_ASSOCIATION('user defined attribute','',#545,#544);
#547=DESCRIPTIVE_REPRESENTATION_ITEM('MOD_WG_NR','1015');
#551=GENERAL_PROPERTY('','MOD_WERKZEUGNAME','user defined attribute');
#552=GENERAL_PROPERTY_ASSOCIATION('user defined attribute','',#551,#550);
#553=DESCRIPTIVE_REPRESENTATION_ITEM('MOD_WERKZEUGNAME','-');
#557=GENERAL_PROPERTY('','MOD_WZG_ART_NR','user defined attribute');
#558=GENERAL_PROPERTY_ASSOCIATION('user defined attribute','',#557,#556);
#559=DESCRIPTIVE_REPRESENTATION_ITEM('MOD_WZG_ART_NR','-');
#563=GENERAL_PROPERTY('','MOD_AUFTRAGSNUMMER','user defined attribute');
#564=GENERAL_PROPERTY_ASSOCIATION('user defined attribute','',#563,#562);
#565=DESCRIPTIVE_REPRESENTATION_ITEM('MOD_AUFTRAGSNUMMER','-');
#569=GENERAL_PROPERTY('','MOD_ERSTELLT_VON','user defined attribute');
#570=GENERAL_PROPERTY_ASSOCIATION('user defined attribute','',#569,#568);
#571=DESCRIPTIVE_REPRESENTATION_ITEM('MOD_ERSTELLT_VON','-');
#575=GENERAL_PROPERTY('','MOD_ERSTELLT_TT_MMM_JJJJ','user defined attribute');
#576=GENERAL_PROPERTY_ASSOCIATION('user defined attribute','',#575,#574);
#577=DESCRIPTIVE_REPRESENTATION_ITEM('MOD_ERSTELLT_TT_MMM_JJJJ','-');
#581=GENERAL_PROPERTY('','MOD_GEPRUEFT_VON','user defined attribute');
#582=GENERAL_PROPERTY_ASSOCIATION('user defined attribute','',#581,#580);
#583=DESCRIPTIVE_REPRESENTATION_ITEM('MOD_GEPRUEFT_VON','-');
#587=GENERAL_PROPERTY('','MOD_GEPRUEFT_TT_MMM_JJJJ','user defined attribute');
#588=GENERAL_PROPERTY_ASSOCIATION('user defined attribute','',#587,#586);
#589=DESCRIPTIVE_REPRESENTATION_ITEM('MOD_GEPRUEFT_TT_MMM_JJJJ','-');
#593=GENERAL_PROPERTY('','MOD_REVISIONSSTAND','user defined attribute');
#594=GENERAL_PROPERTY_ASSOCIATION('user defined attribute','',#593,#592);
#595=DESCRIPTIVE_REPRESENTATION_ITEM('MOD_REVISIONSSTAND','1.0');
#599=GENERAL_PROPERTY('','DEFAULT_XHATCH_SPACING','user defined attribute');
#600=GENERAL_PROPERTY_ASSOCIATION('user defined attribute','',#599,#598);
#601=VALUE_REPRESENTATION_ITEM('DEFAULT_XHATCH_SPACING',NUMERIC_MEASURE(1.E1));
#604=DESCRIPTIVE_REPRESENTATION_ITEM('attribute description','Real Number');
#609=GENERAL_PROPERTY('','DEFAULT_XHATCH_ANGLE','user defined attribute');
#610=GENERAL_PROPERTY_ASSOCIATION('user defined attribute','',#609,#608);
#611=VALUE_REPRESENTATION_ITEM('DEFAULT_XHATCH_ANGLE',NUMERIC_MEASURE(4.5E1));
#614=DESCRIPTIVE_REPRESENTATION_ITEM('attribute description','Real Number');
#619=GENERAL_PROPERTY('','MOD_WERKZEUGFOLGE','user defined attribute');
#620=GENERAL_PROPERTY_ASSOCIATION('user defined attribute','',#619,#618);
#621=DESCRIPTIVE_REPRESENTATION_ITEM('MOD_WERKZEUGFOLGE','-');
#624=APPLIED_PRESENTED_ITEM((#410));
#625=PRESENTED_ITEM_REPRESENTATION(#500,#624);
#1=DRAUGHTING_PRE_DEFINED_COLOUR('black');
#2=COLOUR_RGB('',0.E0,5.80808E-1,0.E0);
#3=DRAUGHTING_PRE_DEFINED_COLOUR('green');
#4=COLOUR_RGB('',7.562E-3,8.83838E-1,7.55456E-1);
#5=COLOUR_RGB('',1.71656E-1,1.E0,9.90354E-1);
#6=COLOUR_RGB('',2.5E-1,2.5E-1,2.5E-1);
#7=COLOUR_RGB('',2.78785E-1,3.63292E-1,1.E0);
#8=COLOUR_RGB('',3.13131E-1,1.56566E-1,0.E0);
#9=COLOUR_RGB('',3.91074E-1,3.2627E-2,6.71717E-1);
#10=COLOUR_RGB('',4.29293E-1,2.14646E-1,0.E0);
#11=COLOUR_RGB('',4.51189E-1,9.42007E-1,1.E0);
#12=COLOUR_RGB('',4.77376E-1,5.73903E-1,1.E0);
#13=COLOUR_RGB('',5.E-1,5.E-1,5.E-1);
#14=COLOUR_RGB('',5.4677E-1,1.E0,2.4817E-1);
#15=COLOUR_RGB('',5.60606E-1,2.80303E-1,0.E0);
#16=COLOUR_RGB('',5.67559E-1,1.73861E-1,6.71717E-1);
#17=COLOUR_RGB('',5.85859E-1,4.18374E-1,5.80261E-1);
#18=COLOUR_RGB('',6.E-1,4.E-1,2.E-1);
#19=COLOUR_RGB('',6.11932E-1,7.49956E-1,1.E0);
#20=COLOUR_RGB('',6.35294E-1,6.86275E-1,7.4902E-1);
#21=COLOUR_RGB('',6.46115E-1,3.25748E-1,6.71717E-1);
#22=COLOUR_RGB('',7.46668E-1,9.80688E-1,1.E0);
#23=COLOUR_RGB('',7.46382E-1,1.E0,4.54171E-1);
#24=COLOUR_RGB('',7.92929E-1,1.78969E-1,3.33728E-1);
#25=COLOUR_RGB('',8.E-1,8.E-1,8.E-1);
#26=COLOUR_RGB('',8.15686E-1,7.68627E-1,8.19608E-1);
#27=COLOUR_RGB('',8.15686E-1,8.70588E-1,8.35294E-1);
#28=COLOUR_RGB('',8.15686E-1,9.17647E-1,9.05882E-1);
#29=COLOUR_RGB('',8.48485E-1,4.02346E-1,2.817E-2);
#30=COLOUR_RGB('',8.82353E-1,8.43137E-1,9.09804E-1);
#31=COLOUR_RGB('',8.82353E-1,8.82353E-1,9.13725E-1);
#32=COLOUR_RGB('',8.90196E-1,8.11765E-1,7.80392E-1);
#33=COLOUR_RGB('',9.05882E-1,9.37255E-1,8.7451E-1);
#34=COLOUR_RGB('',1.E0,4.38962E-1,6.5715E-1);
#35=COLOUR_RGB('',1.E0,5.37727E-1,2.0902E-1);
#36=COLOUR_RGB('',1.E0,6.66667E-1,2.4E-1);
#37=COLOUR_RGB('',1.E0,6.66667E-1,5.4E-1);
#38=COLOUR_RGB('',1.E0,7.10751E-1,8.30187E-1);
#39=COLOUR_RGB('',1.E0,8.E-1,2.E-1);
#40=COLOUR_RGB('',1.E0,8.53127E-1,6.03994E-1);
#41=DRAUGHTING_PRE_DEFINED_COLOUR('yellow');
#42=COLOUR_RGB('',1.E0,1.E0,4.31373E-1);
#43=COLOUR_RGB('',1.E0,1.E0,5.88235E-1);
#44=COLOUR_RGB('',1.E0,1.E0,7.84314E-1);
#45=DRAUGHTING_PRE_DEFINED_COLOUR('white');
#50=CIRCLE('',#49,1.E0);
#59=CIRCLE('',#58,1.E0);
#68=CIRCLE('',#67,1.E0);
#77=CIRCLE('',#76,1.E0);
#86=CIRCLE('',#85,1.E0);
#95=CIRCLE('',#94,1.E0);
#104=CIRCLE('',#103,1.E0);
#113=CIRCLE('',#112,1.E0);
#187=EDGE_CURVE('',#155,#157,#50,.T.);
#189=EDGE_CURVE('',#165,#155,#54,.T.);
#191=EDGE_CURVE('',#163,#165,#59,.T.);
#193=EDGE_CURVE('',#173,#163,#63,.T.);
#195=EDGE_CURVE('',#171,#173,#68,.T.);
#197=EDGE_CURVE('',#181,#171,#72,.T.);
#199=EDGE_CURVE('',#179,#181,#77,.T.);
#201=EDGE_CURVE('',#157,#179,#81,.T.);
#205=ADVANCED_FACE('',(#204),#186,.T.);
#211=EDGE_CURVE('',#152,#153,#86,.T.);
#213=EDGE_CURVE('',#155,#153,#145,.T.);
#216=EDGE_CURVE('',#157,#152,#121,.T.);
#220=ADVANCED_FACE('',(#219),#210,.T.);
#227=EDGE_CURVE('',#152,#177,#90,.T.);
#229=EDGE_CURVE('',#176,#177,#95,.T.);
#231=EDGE_CURVE('',#176,#169,#99,.T.);
#233=EDGE_CURVE('',#168,#169,#104,.T.);
#235=EDGE_CURVE('',#168,#161,#108,.T.);
#237=EDGE_CURVE('',#160,#161,#113,.T.);
#239=EDGE_CURVE('',#160,#153,#117,.T.);
#243=ADVANCED_FACE('',(#242),#225,.F.);
#251=EDGE_CURVE('',#179,#177,#125,.T.);
#256=ADVANCED_FACE('',(#255),#248,.T.);
#265=EDGE_CURVE('',#181,#176,#133,.T.);
#269=ADVANCED_FACE('',(#268),#261,.T.);
#275=EDGE_CURVE('',#171,#169,#129,.T.);
#282=ADVANCED_FACE('',(#281),#274,.T.);
#291=EDGE_CURVE('',#173,#168,#141,.T.);
#295=ADVANCED_FACE('',(#294),#287,.T.);
#301=EDGE_CURVE('',#163,#161,#137,.T.);
#308=ADVANCED_FACE('',(#307),#300,.T.);
#317=EDGE_CURVE('',#165,#160,#149,.T.);
#321=ADVANCED_FACE('',(#320),#313,.T.);
#333=ADVANCED_FACE('',(#332),#326,.T.);
#363=TRIMMED_CURVE('X-ACHSE',#362,(PARAMETER_VALUE(0.E0)),(PARAMETER_VALUE
(1.E0)),.T.,.UNSPECIFIED.);
#371=TRIMMED_CURVE('Y-ACHSE',#370,(PARAMETER_VALUE(0.E0)),(PARAMETER_VALUE
(1.E0)),.T.,.UNSPECIFIED.);
#379=TRIMMED_CURVE('Z-ACHSE',#378,(PARAMETER_VALUE(0.E0)),(PARAMETER_VALUE
(1.E0)),.T.,.UNSPECIFIED.);
#387=(LENGTH_UNIT()NAMED_UNIT(*)SI_UNIT(.MILLI.,.METRE.));
#388=(NAMED_UNIT(*)PLANE_ANGLE_UNIT()SI_UNIT($,.RADIAN.));
#391=(NAMED_UNIT(*)SI_UNIT($,.STERADIAN.)SOLID_ANGLE_UNIT());
#393=(GEOMETRIC_REPRESENTATION_CONTEXT(3)GLOBAL_UNCERTAINTY_ASSIGNED_CONTEXT((
#392))GLOBAL_UNIT_ASSIGNED_CONTEXT((#387,#390,#391))REPRESENTATION_CONTEXT
('ID1','3'));
#394=ADVANCED_BREP_SHAPE_REPRESENTATION('',(#335),#393);
#395=CONSTRUCTIVE_GEOMETRY_REPRESENTATION('supplemental geometry',(#339,#348,
#353,#358,#363,#371,#379),#393);
#399=AXIS2_PLACEMENT_3D('',#396,#397,#398);
#400=SHAPE_REPRESENTATION('',(#399),#393);
#410=PRODUCT_DEFINITION('part definition','',#409,#406);
#411=PRODUCT_DEFINITION_SHAPE('','SHAPE FOR 1015.',#410);
#412=SHAPE_ASPECT('','solid data associated with 1015',#411,.F.);
#413=PROPERTY_DEFINITION('',
'shape for solid data with which properties are associated',#412);
#414=SHAPE_REPRESENTATION('',(#335),#393);
#415=SHAPE_DEFINITION_REPRESENTATION(#413,#414);
#416=(LENGTH_UNIT()NAMED_UNIT(*)SI_UNIT(.MILLI.,.METRE.));
#420=PROPERTY_DEFINITION('geometric validation property','area of 1015',#412);
#421=REPRESENTATION('surface area',(#419),#393);
#422=PROPERTY_DEFINITION_REPRESENTATION(#420,#421);
#423=(LENGTH_UNIT()NAMED_UNIT(*)SI_UNIT(.MILLI.,.METRE.));
#427=PROPERTY_DEFINITION('geometric validation property','volume of 1015',#412);
#428=REPRESENTATION('volume',(#426),#393);
#429=PROPERTY_DEFINITION_REPRESENTATION(#427,#428);
#431=PROPERTY_DEFINITION('geometric validation property','centroid of 1015',
#412);
#432=REPRESENTATION('centroid',(#430),#393);
#433=PROPERTY_DEFINITION_REPRESENTATION(#431,#432);
#434=(LENGTH_UNIT()NAMED_UNIT(*)SI_UNIT(.MILLI.,.METRE.));
#438=PROPERTY_DEFINITION('geometric validation property','area of 1015',#411);
#439=REPRESENTATION('surface area',(#437),#393);
#440=PROPERTY_DEFINITION_REPRESENTATION(#438,#439);
#441=(LENGTH_UNIT()NAMED_UNIT(*)SI_UNIT(.MILLI.,.METRE.));
#445=PROPERTY_DEFINITION('geometric validation property','volume of 1015',#411);
#446=REPRESENTATION('volume',(#444),#393);
#447=PROPERTY_DEFINITION_REPRESENTATION(#445,#446);
#449=PROPERTY_DEFINITION('geometric validation property','centroid of 1015',
#411);
#450=REPRESENTATION('centroid',(#448),#393);
#451=PROPERTY_DEFINITION_REPRESENTATION(#449,#450);
#452=SHAPE_DEFINITION_REPRESENTATION(#411,#400);
#462=PLANAR_BOX('',7.984805665144E1,6.737179779966E1,#461);
#469=CAMERA_USAGE(#468,#455);
#474=PLANAR_BOX('',1.E3,8.4375E2,#473);
#494=PRESENTATION_AREA('',(#493,#498),#454);
#502=PROPERTY_DEFINITION('MOD_POSITION','user defined attribute',#410);
#506=REPRESENTATION('',(#505),#393);
#507=PROPERTY_DEFINITION_REPRESENTATION(#502,#506);
#508=PROPERTY_DEFINITION('MOD_STUECK','user defined attribute',#410);
#512=REPRESENTATION('',(#511),#393);
#513=PROPERTY_DEFINITION_REPRESENTATION(#508,#512);
#514=PROPERTY_DEFINITION('MOD_BENENNUNG','user defined attribute',#410);
#518=REPRESENTATION('',(#517),#393);
#519=PROPERTY_DEFINITION_REPRESENTATION(#514,#518);
#520=PROPERTY_DEFINITION('MOD_ABMESSUNGEN','user defined attribute',#410);
#524=REPRESENTATION('',(#523),#393);
#525=PROPERTY_DEFINITION_REPRESENTATION(#520,#524);
#526=PROPERTY_DEFINITION('MOD_MATERIAL','user defined attribute',#410);
#530=REPRESENTATION('',(#529),#393);
#531=PROPERTY_DEFINITION_REPRESENTATION(#526,#530);
#532=PROPERTY_DEFINITION('MOD_HAERTE','user defined attribute',#410);
#536=REPRESENTATION('',(#535),#393);
#537=PROPERTY_DEFINITION_REPRESENTATION(#532,#536);
#538=PROPERTY_DEFINITION('MOD_LIEFERANT','user defined attribute',#410);
#542=REPRESENTATION('',(#541),#393);
#543=PROPERTY_DEFINITION_REPRESENTATION(#538,#542);
#544=PROPERTY_DEFINITION('MOD_WG_NR','user defined attribute',#410);
#548=REPRESENTATION('',(#547),#393);
#549=PROPERTY_DEFINITION_REPRESENTATION(#544,#548);
#550=PROPERTY_DEFINITION('MOD_WERKZEUGNAME','user defined attribute',#410);
#554=REPRESENTATION('',(#553),#393);
#555=PROPERTY_DEFINITION_REPRESENTATION(#550,#554);
#556=PROPERTY_DEFINITION('MOD_WZG_ART_NR','user defined attribute',#410);
#560=REPRESENTATION('',(#559),#393);
#561=PROPERTY_DEFINITION_REPRESENTATION(#556,#560);
#562=PROPERTY_DEFINITION('MOD_AUFTRAGSNUMMER','user defined attribute',#410);
#566=REPRESENTATION('',(#565),#393);
#567=PROPERTY_DEFINITION_REPRESENTATION(#562,#566);
#568=PROPERTY_DEFINITION('MOD_ERSTELLT_VON','user defined attribute',#410);
#572=REPRESENTATION('',(#571),#393);
#573=PROPERTY_DEFINITION_REPRESENTATION(#568,#572);
#574=PROPERTY_DEFINITION('MOD_ERSTELLT_TT_MMM_JJJJ','user defined attribute',
#410);
#578=REPRESENTATION('',(#577),#393);
#579=PROPERTY_DEFINITION_REPRESENTATION(#574,#578);
#580=PROPERTY_DEFINITION('MOD_GEPRUEFT_VON','user defined attribute',#410);
#584=REPRESENTATION('',(#583),#393);
#585=PROPERTY_DEFINITION_REPRESENTATION(#580,#584);
#586=PROPERTY_DEFINITION('MOD_GEPRUEFT_TT_MMM_JJJJ','user defined attribute',
#410);
#590=REPRESENTATION('',(#589),#393);
#591=PROPERTY_DEFINITION_REPRESENTATION(#586,#590);
#592=PROPERTY_DEFINITION('MOD_REVISIONSSTAND','user defined attribute',#410);
#596=REPRESENTATION('',(#595),#393);
#597=PROPERTY_DEFINITION_REPRESENTATION(#592,#596);
#598=PROPERTY_DEFINITION('DEFAULT_XHATCH_SPACING','user defined attribute',
#410);
#602=REPRESENTATION('',(#601),#393);
#603=PROPERTY_DEFINITION_REPRESENTATION(#598,#602);
#605=REPRESENTATION('',(#604),#393);
#606=PROPERTY_DEFINITION('attribute type designation','Real Number',#599);
#607=PROPERTY_DEFINITION_REPRESENTATION(#606,#605);
#608=PROPERTY_DEFINITION('DEFAULT_XHATCH_ANGLE','user defined attribute',#410);
#612=REPRESENTATION('',(#611),#393);
#613=PROPERTY_DEFINITION_REPRESENTATION(#608,#612);
#615=REPRESENTATION('',(#614),#393);
#616=PROPERTY_DEFINITION('attribute type designation','Real Number',#609);
#617=PROPERTY_DEFINITION_REPRESENTATION(#616,#615);
#618=PROPERTY_DEFINITION('MOD_WERKZEUGFOLGE','user defined attribute',#410);
#622=REPRESENTATION('',(#621),#393);
#623=PROPERTY_DEFINITION_REPRESENTATION(#618,#622);
ENDSEC;
END-ISO-10303-21;
