ISO-10303-21;
HEADER;
/* Generated by software containing ST-Developer
 * from STEP Tools, Inc. (www.steptools.com) 
 */
/* OPTION: using custom schema-name function */

FILE_DESCRIPTION(
/* description */ (''),
/* implementation_level */ '2;1');

FILE_NAME(
/* name */ 'Verbindungsteil_X66.stp',
/* time_stamp */ '2017-05-21T21:19:50+02:00',
/* author */ (''),
/* organization */ (''),
/* preprocessor_version */ 'ST-DEVELOPER v16',
/* originating_system */ 'SIEMENS PLM Software NX 11.0',
/* authorisation */ '');

FILE_SCHEMA (('AUTOMOTIVE_DESIGN { 1 0 10303 214 3 1 1 1 }'));
ENDSEC;

DATA;
#10=PROPERTY_DEFINITION_REPRESENTATION(#14,#12);
#11=PROPERTY_DEFINITION_REPRESENTATION(#15,#13);
#12=REPRESENTATION('',(#16),#267);
#13=REPRESENTATION('',(#17),#267);
#14=PROPERTY_DEFINITION('pmi validation property','',#21);
#15=PROPERTY_DEFINITION('pmi validation property','',#21);
#16=VALUE_REPRESENTATION_ITEM('number of annotations',COUNT_MEASURE(0.));
#17=VALUE_REPRESENTATION_ITEM('number of views',COUNT_MEASURE(0.));
#18=SHAPE_REPRESENTATION_RELATIONSHIP('None',
'relationship between Goge0DC4A474bg5r-None and Goge0DC4A474bg5r-None',
#30,#19);
#19=ADVANCED_BREP_SHAPE_REPRESENTATION('Goge0DC4A474bg5r-None',(#40),#267);
#20=SHAPE_DEFINITION_REPRESENTATION(#21,#30);
#21=PRODUCT_DEFINITION_SHAPE('','',#22);
#22=PRODUCT_DEFINITION(' ','',#24,#23);
#23=PRODUCT_DEFINITION_CONTEXT('part definition',#29,'design');
#24=PRODUCT_DEFINITION_FORMATION_WITH_SPECIFIED_SOURCE(' ',' ',#26,
 .NOT_KNOWN.);
#25=PRODUCT_RELATED_PRODUCT_CATEGORY('part','',(#26));
#26=PRODUCT('Goge0DC4A474bg5r','Goge0DC4A474bg5r',' ',(#27));
#27=PRODUCT_CONTEXT(' ',#29,'mechanical');
#28=APPLICATION_PROTOCOL_DEFINITION('international standard',
'automotive_design',2010,#29);
#29=APPLICATION_CONTEXT(
'core data for automotive mechanical design processes');
#30=SHAPE_REPRESENTATION('Goge0DC4A474bg5r-None',(#163),#267);
#31=PRESENTATION_LAYER_ASSIGNMENT('1','Layer 1',(#40));
#32=STYLED_ITEM('',(#33),#40);
#33=PRESENTATION_STYLE_ASSIGNMENT((#34));
#34=SURFACE_STYLE_USAGE(.BOTH.,#35);
#35=SURFACE_SIDE_STYLE('',(#36));
#36=SURFACE_STYLE_FILL_AREA(#37);
#37=FILL_AREA_STYLE('',(#38));
#38=FILL_AREA_STYLE_COLOUR('',#39);
#39=COLOUR_RGB('Medium Steel',0.596063172350652,0.666666666666667,0.686259250782025);
#40=MANIFOLD_SOLID_BREP('',#41);
#41=CLOSED_SHELL('',(#48,#49,#50,#51,#52,#53,#54,#55,#56,#57,#58));
#42=CONICAL_SURFACE('',#177,14.1999999999994,45.);
#43=PLANE('',#175);
#44=PLANE('',#176);
#45=PLANE('',#179);
#46=PLANE('',#182);
#47=PLANE('',#185);
#48=ADVANCED_FACE('',(#64,#65),#59,.F.);
#49=ADVANCED_FACE('',(#66,#67),#60,.F.);
#50=ADVANCED_FACE('',(#68,#69),#61,.T.);
#51=ADVANCED_FACE('',(#70,#71),#43,.T.);
#52=ADVANCED_FACE('',(#72,#73),#44,.F.);
#53=ADVANCED_FACE('',(#74,#75),#42,.T.);
#54=ADVANCED_FACE('',(#76,#77),#45,.T.);
#55=ADVANCED_FACE('',(#78,#79),#62,.F.);
#56=ADVANCED_FACE('',(#80,#81),#46,.T.);
#57=ADVANCED_FACE('',(#82,#83),#63,.T.);
#58=ADVANCED_FACE('',(#84,#85),#47,.T.);
#59=CYLINDRICAL_SURFACE('',#166,12.1936561197196);
#60=CYLINDRICAL_SURFACE('',#169,4.);
#61=CYLINDRICAL_SURFACE('',#172,14.6999999999994);
#62=CYLINDRICAL_SURFACE('',#181,13.4133446531723);
#63=CYLINDRICAL_SURFACE('',#184,6.27932834163704);
#64=FACE_BOUND('',#86,.T.);
#65=FACE_BOUND('',#87,.T.);
#66=FACE_BOUND('',#88,.T.);
#67=FACE_BOUND('',#89,.T.);
#68=FACE_BOUND('',#90,.T.);
#69=FACE_BOUND('',#91,.T.);
#70=FACE_BOUND('',#92,.T.);
#71=FACE_BOUND('',#93,.T.);
#72=FACE_BOUND('',#94,.T.);
#73=FACE_BOUND('',#95,.T.);
#74=FACE_BOUND('',#96,.T.);
#75=FACE_BOUND('',#97,.T.);
#76=FACE_BOUND('',#98,.T.);
#77=FACE_BOUND('',#99,.T.);
#78=FACE_BOUND('',#100,.T.);
#79=FACE_BOUND('',#101,.T.);
#80=FACE_BOUND('',#102,.T.);
#81=FACE_BOUND('',#103,.T.);
#82=FACE_BOUND('',#104,.T.);
#83=FACE_BOUND('',#105,.T.);
#84=FACE_BOUND('',#106,.T.);
#85=FACE_BOUND('',#107,.T.);
#86=EDGE_LOOP('',(#108));
#87=EDGE_LOOP('',(#109));
#88=EDGE_LOOP('',(#110));
#89=EDGE_LOOP('',(#111));
#90=EDGE_LOOP('',(#112));
#91=EDGE_LOOP('',(#113));
#92=EDGE_LOOP('',(#114));
#93=EDGE_LOOP('',(#115));
#94=EDGE_LOOP('',(#116));
#95=EDGE_LOOP('',(#117));
#96=EDGE_LOOP('',(#118));
#97=EDGE_LOOP('',(#119));
#98=EDGE_LOOP('',(#120));
#99=EDGE_LOOP('',(#121));
#100=EDGE_LOOP('',(#122));
#101=EDGE_LOOP('',(#123));
#102=EDGE_LOOP('',(#124));
#103=EDGE_LOOP('',(#125));
#104=EDGE_LOOP('',(#126));
#105=EDGE_LOOP('',(#127));
#106=EDGE_LOOP('',(#128));
#107=EDGE_LOOP('',(#129));
#108=ORIENTED_EDGE('',*,*,#141,.T.);
#109=ORIENTED_EDGE('',*,*,#142,.F.);
#110=ORIENTED_EDGE('',*,*,#143,.F.);
#111=ORIENTED_EDGE('',*,*,#144,.F.);
#112=ORIENTED_EDGE('',*,*,#145,.T.);
#113=ORIENTED_EDGE('',*,*,#146,.T.);
#114=ORIENTED_EDGE('',*,*,#147,.F.);
#115=ORIENTED_EDGE('',*,*,#148,.T.);
#116=ORIENTED_EDGE('',*,*,#143,.T.);
#117=ORIENTED_EDGE('',*,*,#146,.F.);
#118=ORIENTED_EDGE('',*,*,#145,.F.);
#119=ORIENTED_EDGE('',*,*,#148,.F.);
#120=ORIENTED_EDGE('',*,*,#149,.F.);
#121=ORIENTED_EDGE('',*,*,#141,.F.);
#122=ORIENTED_EDGE('',*,*,#150,.T.);
#123=ORIENTED_EDGE('',*,*,#147,.T.);
#124=ORIENTED_EDGE('',*,*,#150,.F.);
#125=ORIENTED_EDGE('',*,*,#142,.T.);
#126=ORIENTED_EDGE('',*,*,#149,.T.);
#127=ORIENTED_EDGE('',*,*,#151,.F.);
#128=ORIENTED_EDGE('',*,*,#151,.T.);
#129=ORIENTED_EDGE('',*,*,#144,.T.);
#130=VERTEX_POINT('',#234);
#131=VERTEX_POINT('',#236);
#132=VERTEX_POINT('',#239);
#133=VERTEX_POINT('',#241);
#134=VERTEX_POINT('',#244);
#135=VERTEX_POINT('',#246);
#136=VERTEX_POINT('',#249);
#137=VERTEX_POINT('',#251);
#138=VERTEX_POINT('',#256);
#139=VERTEX_POINT('',#259);
#140=VERTEX_POINT('',#263);
#141=EDGE_CURVE('',#130,#130,#152,.T.);
#142=EDGE_CURVE('',#131,#131,#153,.T.);
#143=EDGE_CURVE('',#132,#132,#154,.T.);
#144=EDGE_CURVE('',#133,#133,#155,.T.);
#145=EDGE_CURVE('',#134,#134,#156,.T.);
#146=EDGE_CURVE('',#135,#135,#157,.T.);
#147=EDGE_CURVE('',#136,#136,#158,.T.);
#148=EDGE_CURVE('',#137,#137,#159,.T.);
#149=EDGE_CURVE('',#138,#138,#160,.T.);
#150=EDGE_CURVE('',#139,#139,#161,.T.);
#151=EDGE_CURVE('',#140,#140,#162,.T.);
#152=CIRCLE('',#164,12.1936561197196);
#153=CIRCLE('',#165,12.1936561197196);
#154=CIRCLE('',#167,4.);
#155=CIRCLE('',#168,4.);
#156=CIRCLE('',#170,14.6999999999994);
#157=CIRCLE('',#171,14.6999999999994);
#158=CIRCLE('',#173,13.4133446531723);
#159=CIRCLE('',#174,14.1999999999994);
#160=CIRCLE('',#178,6.27932834163704);
#161=CIRCLE('',#180,13.4133446531723);
#162=CIRCLE('',#183,6.27932834163704);
#163=AXIS2_PLACEMENT_3D('',#232,#186,#187);
#164=AXIS2_PLACEMENT_3D('',#233,#188,#189);
#165=AXIS2_PLACEMENT_3D('',#235,#190,#191);
#166=AXIS2_PLACEMENT_3D('',#237,#192,#193);
#167=AXIS2_PLACEMENT_3D('',#238,#194,#195);
#168=AXIS2_PLACEMENT_3D('',#240,#196,#197);
#169=AXIS2_PLACEMENT_3D('',#242,#198,#199);
#170=AXIS2_PLACEMENT_3D('',#243,#200,#201);
#171=AXIS2_PLACEMENT_3D('',#245,#202,#203);
#172=AXIS2_PLACEMENT_3D('',#247,#204,#205);
#173=AXIS2_PLACEMENT_3D('',#248,#206,#207);
#174=AXIS2_PLACEMENT_3D('',#250,#208,#209);
#175=AXIS2_PLACEMENT_3D('',#252,#210,#211);
#176=AXIS2_PLACEMENT_3D('',#253,#212,#213);
#177=AXIS2_PLACEMENT_3D('',#254,#214,#215);
#178=AXIS2_PLACEMENT_3D('',#255,#216,#217);
#179=AXIS2_PLACEMENT_3D('',#257,#218,#219);
#180=AXIS2_PLACEMENT_3D('',#258,#220,#221);
#181=AXIS2_PLACEMENT_3D('',#260,#222,#223);
#182=AXIS2_PLACEMENT_3D('',#261,#224,#225);
#183=AXIS2_PLACEMENT_3D('',#262,#226,#227);
#184=AXIS2_PLACEMENT_3D('',#264,#228,#229);
#185=AXIS2_PLACEMENT_3D('',#265,#230,#231);
#186=DIRECTION('',(0.,0.,1.));
#187=DIRECTION('',(1.,0.,0.));
#188=DIRECTION('',(0.,0.,-1.));
#189=DIRECTION('',(1.,0.,0.));
#190=DIRECTION('',(0.,0.,-1.));
#191=DIRECTION('',(1.,1.22464679914735E-16,0.));
#192=DIRECTION('',(0.,0.,1.));
#193=DIRECTION('',(1.,0.,0.));
#194=DIRECTION('',(0.,0.,1.));
#195=DIRECTION('',(1.,0.,0.));
#196=DIRECTION('',(0.,0.,-1.));
#197=DIRECTION('',(1.,1.22464679914735E-16,0.));
#198=DIRECTION('',(0.,0.,1.));
#199=DIRECTION('',(1.,0.,0.));
#200=DIRECTION('',(0.,0.,-1.));
#201=DIRECTION('',(1.,0.,0.));
#202=DIRECTION('',(0.,0.,1.));
#203=DIRECTION('',(1.,0.,0.));
#204=DIRECTION('',(0.,0.,-1.));
#205=DIRECTION('',(-1.,0.,0.));
#206=DIRECTION('',(0.,0.,1.));
#207=DIRECTION('',(1.,0.,0.));
#208=DIRECTION('',(0.,0.,1.));
#209=DIRECTION('',(1.,0.,0.));
#210=DIRECTION('',(0.,0.,1.));
#211=DIRECTION('',(1.,0.,0.));
#212=DIRECTION('',(0.,0.,1.));
#213=DIRECTION('',(1.,0.,0.));
#214=DIRECTION('',(0.,0.,-1.));
#215=DIRECTION('',(-1.,0.,1.36834823583262E-17));
#216=DIRECTION('',(0.,0.,1.));
#217=DIRECTION('',(1.,0.,0.));
#218=DIRECTION('',(0.,0.,1.));
#219=DIRECTION('',(1.,0.,0.));
#220=DIRECTION('',(0.,0.,-1.));
#221=DIRECTION('',(1.,0.,0.));
#222=DIRECTION('',(0.,0.,1.));
#223=DIRECTION('',(1.,0.,0.));
#224=DIRECTION('',(0.,0.,1.));
#225=DIRECTION('',(1.,0.,0.));
#226=DIRECTION('',(0.,0.,1.));
#227=DIRECTION('',(1.,0.,0.));
#228=DIRECTION('',(0.,0.,-1.));
#229=DIRECTION('',(-1.,0.,0.));
#230=DIRECTION('',(0.,0.,1.));
#231=DIRECTION('',(1.,0.,0.));
#232=CARTESIAN_POINT('',(0.,0.,0.));
#233=CARTESIAN_POINT('',(0.,0.,2.80000000000001));
#234=CARTESIAN_POINT('',(12.1936561197196,0.,2.80000000000001));
#235=CARTESIAN_POINT('',(0.,0.,3.70000000000001));
#236=CARTESIAN_POINT('',(12.1936561197196,1.49329219369182E-15,3.70000000000001));
#237=CARTESIAN_POINT('',(0.,0.,2.80000000000001));
#238=CARTESIAN_POINT('',(0.,0.,0.));
#239=CARTESIAN_POINT('',(4.,0.,0.));
#240=CARTESIAN_POINT('',(0.,0.,4.00000000000001));
#241=CARTESIAN_POINT('',(4.,4.89858719658941E-16,4.00000000000001));
#242=CARTESIAN_POINT('',(0.,0.,-8.99999999999999));
#243=CARTESIAN_POINT('',(0.,0.,17.5));
#244=CARTESIAN_POINT('',(14.6999999999994,0.,17.5));
#245=CARTESIAN_POINT('',(0.,0.,0.));
#246=CARTESIAN_POINT('',(14.6999999999994,0.,0.));
#247=CARTESIAN_POINT('',(0.,0.,18.));
#248=CARTESIAN_POINT('',(0.,0.,18.));
#249=CARTESIAN_POINT('',(13.4133446531723,0.,18.));
#250=CARTESIAN_POINT('',(0.,0.,18.));
#251=CARTESIAN_POINT('',(14.1999999999994,0.,18.));
#252=CARTESIAN_POINT('',(0.,0.,18.));
#253=CARTESIAN_POINT('',(0.,0.,0.));
#254=CARTESIAN_POINT('',(0.,0.,18.));
#255=CARTESIAN_POINT('',(0.,0.,2.80000000000001));
#256=CARTESIAN_POINT('',(6.27932834163704,0.,2.80000000000001));
#257=CARTESIAN_POINT('',(0.,0.,2.80000000000001));
#258=CARTESIAN_POINT('',(0.,0.,3.70000000000001));
#259=CARTESIAN_POINT('',(13.4133446531723,0.,3.70000000000001));
#260=CARTESIAN_POINT('',(0.,0.,3.70000000000001));
#261=CARTESIAN_POINT('',(0.,0.,3.70000000000001));
#262=CARTESIAN_POINT('',(0.,0.,4.00000000000001));
#263=CARTESIAN_POINT('',(6.27932834163704,0.,4.00000000000001));
#264=CARTESIAN_POINT('',(0.,0.,4.00000000000001));
#265=CARTESIAN_POINT('',(0.,0.,4.00000000000001));
#266=MECHANICAL_DESIGN_GEOMETRIC_PRESENTATION_REPRESENTATION('',(#32),#267);
#267=(
GEOMETRIC_REPRESENTATION_CONTEXT(3)
GLOBAL_UNCERTAINTY_ASSIGNED_CONTEXT((#268))
GLOBAL_UNIT_ASSIGNED_CONTEXT((#274,#270,#269))
REPRESENTATION_CONTEXT('Verbindungsteil_X66','TOP_LEVEL_ASSEMBLY_PART')
);
#268=UNCERTAINTY_MEASURE_WITH_UNIT(LENGTH_MEASURE(2.E-5),#274,
'DISTANCE_ACCURACY_VALUE','Maximum Tolerance applied to model');
#269=(
NAMED_UNIT(*)
SI_UNIT($,.STERADIAN.)
SOLID_ANGLE_UNIT()
);
#270=(
CONVERSION_BASED_UNIT('DEGREE',#272)
NAMED_UNIT(#271)
PLANE_ANGLE_UNIT()
);
#271=DIMENSIONAL_EXPONENTS(0.,0.,0.,0.,0.,0.,0.);
#272=PLANE_ANGLE_MEASURE_WITH_UNIT(PLANE_ANGLE_MEASURE(0.0174532925),#273);
#273=(
NAMED_UNIT(*)
PLANE_ANGLE_UNIT()
SI_UNIT($,.RADIAN.)
);
#274=(
LENGTH_UNIT()
NAMED_UNIT(*)
SI_UNIT(.MILLI.,.METRE.)
);
ENDSEC;
END-ISO-10303-21;
