ISO-10303-21;
HEADER;
/* Generated by software containing ST-Developer
 * from STEP Tools, Inc. (www.steptools.com) 
 */
/* OPTION: strings as raw bytes, not using required /X/ escapes */

FILE_DESCRIPTION(
/* description */ ('Unknown'),
/* implementation_level */ '2;1');

FILE_NAME(
/* name */ 'Eckbogen_90_Drad_X81',
/* time_stamp */ '2017-05-16T11:22:02+02:00',
/* author */ ('Unknown'),
/* organization */ ('Unknown'),
/* preprocessor_version */ 'ST-DEVELOPER v16',
/* originating_system */ 'DEX',
/* authorisation */ $);

FILE_SCHEMA (('AUTOMOTIVE_DESIGN {1 0 10303 214 3 1 1}'));
ENDSEC;

DATA;
#10=PROPERTY_DEFINITION_REPRESENTATION(#14,#12);
#11=PROPERTY_DEFINITION_REPRESENTATION(#15,#13);
#12=REPRESENTATION('',(#16),#341);
#13=REPRESENTATION('',(#17),#341);
#14=PROPERTY_DEFINITION('pmi validation property','',#346);
#15=PROPERTY_DEFINITION('pmi validation property','',#346);
#16=VALUE_REPRESENTATION_ITEM('number of annotations',COUNT_MEASURE(0.));
#17=VALUE_REPRESENTATION_ITEM('number of views',COUNT_MEASURE(0.));
#18=SHAPE_REPRESENTATION_RELATIONSHIP('','',#118,#19);
#19=ADVANCED_BREP_SHAPE_REPRESENTATION('',(#116),#341);
#20=B_SPLINE_SURFACE_WITH_KNOTS('',3,3,((#190,#191,#192,#193,#194),(#195,
#196,#197,#198,#199),(#200,#201,#202,#203,#204),(#205,#206,#207,#208,#209),
(#210,#211,#212,#213,#214),(#215,#216,#217,#218,#219),(#220,#221,#222,#223,
#224),(#225,#226,#227,#228,#229),(#230,#231,#232,#233,#234),(#235,#236,
#237,#238,#239),(#240,#241,#242,#243,#244),(#245,#246,#247,#248,#249),(#250,
#251,#252,#253,#254),(#255,#256,#257,#258,#259),(#260,#261,#262,#263,#264)),
 .UNSPECIFIED.,.F.,.F.,.F.,(4,1,1,1,1,1,1,1,1,1,1,1,4),(4,1,4),(1.5707963267949,
1.96349540849362,2.15984494934298,2.42164433714213,2.68344372494128,2.94524311274043,
3.14159265358979,3.33794219443916,3.5997415822383,3.86154097003745,4.1233403578366,
4.31968989868597,4.71238898038469),(0.,0.5,1.),.UNSPECIFIED.);
#21=B_SPLINE_SURFACE_WITH_KNOTS('',3,3,((#265,#266,#267,#268,#269),(#270,
#271,#272,#273,#274),(#275,#276,#277,#278,#279),(#280,#281,#282,#283,#284),
(#285,#286,#287,#288,#289),(#290,#291,#292,#293,#294),(#295,#296,#297,#298,
#299),(#300,#301,#302,#303,#304),(#305,#306,#307,#308,#309),(#310,#311,
#312,#313,#314),(#315,#316,#317,#318,#319),(#320,#321,#322,#323,#324),(#325,
#326,#327,#328,#329),(#330,#331,#332,#333,#334),(#335,#336,#337,#338,#339)),
 .UNSPECIFIED.,.F.,.F.,.F.,(4,1,1,1,1,1,1,1,1,1,1,1,4),(4,1,4),(4.71238898038469,
5.10508806208341,5.30143760293278,5.56323699073193,5.82503637853107,6.08683576633022,
6.28318530717959,6.47953484802895,6.7413342358281,7.00313362362725,7.2649330114264,
7.46128255227576,7.85398163397448),(0.,0.5,1.),.UNSPECIFIED.);
#22=PLANE('',#124);
#23=PLANE('',#126);
#24=CIRCLE('',#123,21.);
#25=CIRCLE('',#125,19.);
#26=CIRCLE('',#127,19.);
#27=CIRCLE('',#128,21.);
#28=ORIENTED_EDGE('',*,*,#46,.T.);
#29=ORIENTED_EDGE('',*,*,#47,.T.);
#30=ORIENTED_EDGE('',*,*,#48,.F.);
#31=ORIENTED_EDGE('',*,*,#49,.F.);
#32=ORIENTED_EDGE('',*,*,#48,.T.);
#33=ORIENTED_EDGE('',*,*,#50,.T.);
#34=ORIENTED_EDGE('',*,*,#51,.F.);
#35=ORIENTED_EDGE('',*,*,#52,.T.);
#36=ORIENTED_EDGE('',*,*,#53,.T.);
#37=ORIENTED_EDGE('',*,*,#51,.T.);
#38=ORIENTED_EDGE('',*,*,#54,.T.);
#39=ORIENTED_EDGE('',*,*,#49,.T.);
#40=ORIENTED_EDGE('',*,*,#54,.F.);
#41=ORIENTED_EDGE('',*,*,#50,.F.);
#42=ORIENTED_EDGE('',*,*,#53,.F.);
#43=ORIENTED_EDGE('',*,*,#46,.F.);
#44=ORIENTED_EDGE('',*,*,#52,.F.);
#45=ORIENTED_EDGE('',*,*,#47,.F.);
#46=EDGE_CURVE('',#55,#56,#62,.T.);
#47=EDGE_CURVE('',#56,#55,#63,.T.);
#48=EDGE_CURVE('',#57,#57,#24,.T.);
#49=EDGE_CURVE('',#58,#58,#25,.T.);
#50=EDGE_CURVE('',#59,#59,#26,.F.);
#51=EDGE_CURVE('',#60,#60,#27,.T.);
#52=EDGE_CURVE('',#55,#56,#64,.F.);
#53=EDGE_CURVE('',#56,#55,#65,.F.);
#54=EDGE_CURVE('',#61,#61,#66,.T.);
#55=VERTEX_POINT('',#170);
#56=VERTEX_POINT('',#171);
#57=VERTEX_POINT('',#174);
#58=VERTEX_POINT('',#177);
#59=VERTEX_POINT('',#180);
#60=VERTEX_POINT('',#182);
#61=VERTEX_POINT('',#188);
#62=ELLIPSE('',#121,28.3196045170126,21.);
#63=ELLIPSE('',#122,31.1448230047949,21.);
#64=ELLIPSE('',#130,31.1448230047949,21.);
#65=ELLIPSE('',#131,28.3196045170126,21.);
#66=ELLIPSE('',#133,26.8700576850888,19.);
#67=EDGE_LOOP('',(#28,#29));
#68=EDGE_LOOP('',(#30));
#69=EDGE_LOOP('',(#31));
#70=EDGE_LOOP('',(#32));
#71=EDGE_LOOP('',(#33));
#72=EDGE_LOOP('',(#34));
#73=EDGE_LOOP('',(#35,#36));
#74=EDGE_LOOP('',(#37));
#75=EDGE_LOOP('',(#38));
#76=EDGE_LOOP('',(#39));
#77=EDGE_LOOP('',(#40));
#78=EDGE_LOOP('',(#41));
#79=EDGE_LOOP('',(#42,#43));
#80=EDGE_LOOP('',(#44,#45));
#81=FACE_BOUND('',#67,.T.);
#82=FACE_BOUND('',#68,.T.);
#83=FACE_BOUND('',#69,.T.);
#84=FACE_BOUND('',#70,.T.);
#85=FACE_BOUND('',#71,.T.);
#86=FACE_BOUND('',#72,.T.);
#87=FACE_BOUND('',#73,.T.);
#88=FACE_BOUND('',#74,.T.);
#89=FACE_BOUND('',#75,.T.);
#90=FACE_BOUND('',#76,.T.);
#91=FACE_BOUND('',#77,.T.);
#92=FACE_BOUND('',#78,.T.);
#93=FACE_BOUND('',#79,.T.);
#94=FACE_BOUND('',#80,.T.);
#95=CYLINDRICAL_SURFACE('',#120,21.);
#96=CYLINDRICAL_SURFACE('',#129,21.);
#97=CYLINDRICAL_SURFACE('',#132,19.);
#98=CYLINDRICAL_SURFACE('',#134,19.);
#99=ADVANCED_FACE('',(#81,#82),#95,.T.);
#100=ADVANCED_FACE('',(#83,#84),#22,.T.);
#101=ADVANCED_FACE('',(#85,#86),#23,.T.);
#102=ADVANCED_FACE('',(#87,#88),#96,.T.);
#103=ADVANCED_FACE('',(#89,#90),#97,.F.);
#104=ADVANCED_FACE('',(#91,#92),#98,.F.);
#105=ADVANCED_FACE('',(#93),#20,.T.);
#106=ADVANCED_FACE('',(#94),#21,.F.);
#107=CLOSED_SHELL('',(#99,#100,#101,#102,#103,#104,#105,#106));
#108=STYLED_ITEM('',(#109),#116);
#109=PRESENTATION_STYLE_ASSIGNMENT((#110));
#110=SURFACE_STYLE_USAGE(.BOTH.,#111);
#111=SURFACE_SIDE_STYLE('',(#112));
#112=SURFACE_STYLE_FILL_AREA(#113);
#113=FILL_AREA_STYLE('',(#114));
#114=FILL_AREA_STYLE_COLOUR('',#115);
#115=COLOUR_RGB('',0.506983280181885,0.531564235687256,0.550000011920929);
#116=MANIFOLD_SOLID_BREP('',#107);
#117=SHAPE_DEFINITION_REPRESENTATION(#346,#118);
#118=SHAPE_REPRESENTATION('Eckbogen_90_Drad_X81',(#119),#341);
#119=AXIS2_PLACEMENT_3D('',#167,#135,#136);
#120=AXIS2_PLACEMENT_3D('',#168,#137,#138);
#121=AXIS2_PLACEMENT_3D('',#169,#139,#140);
#122=AXIS2_PLACEMENT_3D('',#172,#141,#142);
#123=AXIS2_PLACEMENT_3D('',#173,#143,#144);
#124=AXIS2_PLACEMENT_3D('',#175,#145,#146);
#125=AXIS2_PLACEMENT_3D('',#176,#147,#148);
#126=AXIS2_PLACEMENT_3D('',#178,#149,#150);
#127=AXIS2_PLACEMENT_3D('',#179,#151,#152);
#128=AXIS2_PLACEMENT_3D('',#181,#153,#154);
#129=AXIS2_PLACEMENT_3D('',#183,#155,#156);
#130=AXIS2_PLACEMENT_3D('',#184,#157,#158);
#131=AXIS2_PLACEMENT_3D('',#185,#159,#160);
#132=AXIS2_PLACEMENT_3D('',#186,#161,#162);
#133=AXIS2_PLACEMENT_3D('',#187,#163,#164);
#134=AXIS2_PLACEMENT_3D('',#189,#165,#166);
#135=DIRECTION('',(0.,0.,1.));
#136=DIRECTION('',(1.,0.,0.));
#137=DIRECTION('',(0.,-1.,0.));
#138=DIRECTION('',(0.,0.,-1.));
#139=DIRECTION('',(0.670913323969126,-0.741535779123771,0.));
#140=DIRECTION('',(-0.741535779123771,-0.670913323969126,0.));
#141=DIRECTION('',(0.738485493928126,-0.674269364021333,0.));
#142=DIRECTION('',(-0.674269364021333,-0.738485493928126,0.));
#143=DIRECTION('',(0.,-1.,0.));
#144=DIRECTION('',(1.,0.,0.));
#145=DIRECTION('',(0.,-1.,0.));
#146=DIRECTION('',(0.,0.,-1.));
#147=DIRECTION('',(0.,-1.,0.));
#148=DIRECTION('',(0.,0.,-1.));
#149=DIRECTION('',(-1.,6.66133814775094E-16,0.));
#150=DIRECTION('',(0.,0.,-1.));
#151=DIRECTION('',(-1.,6.66133814775094E-16,0.));
#152=DIRECTION('',(-6.66133814775094E-16,-1.,0.));
#153=DIRECTION('',(1.,-6.66133814775094E-16,0.));
#154=DIRECTION('',(7.7715611723761E-16,1.,0.));
#155=DIRECTION('',(-1.,6.66133814775094E-16,0.));
#156=DIRECTION('',(0.,0.,-1.));
#157=DIRECTION('',(0.674269364021332,-0.738485493928126,0.));
#158=DIRECTION('',(-0.738485493928126,-0.674269364021332,0.));
#159=DIRECTION('',(0.741535779123771,-0.670913323969126,0.));
#160=DIRECTION('',(-0.670913323969126,-0.741535779123771,0.));
#161=DIRECTION('',(0.,-1.,0.));
#162=DIRECTION('',(0.,0.,-1.));
#163=DIRECTION('',(-0.707106781186547,0.707106781186548,0.));
#164=DIRECTION('',(-0.707106781186548,-0.707106781186547,0.));
#165=DIRECTION('',(-1.,6.66133814775094E-16,0.));
#166=DIRECTION('',(0.,0.,-1.));
#167=CARTESIAN_POINT('',(0.,0.,0.));
#168=CARTESIAN_POINT('',(0.,95.8350213920533,0.));
#169=CARTESIAN_POINT('',(0.,67.5000000000004,0.));
#170=CARTESIAN_POINT('',(-5.94881584253038E-15,67.5000000000004,-21.));
#171=CARTESIAN_POINT('',(3.85763741731416E-15,67.5000000000004,21.));
#172=CARTESIAN_POINT('',(0.,67.5000000000004,0.));
#173=CARTESIAN_POINT('',(0.,0.,0.));
#174=CARTESIAN_POINT('',(21.,0.,0.));
#175=CARTESIAN_POINT('',(0.,0.,0.));
#176=CARTESIAN_POINT('',(0.,0.,0.));
#177=CARTESIAN_POINT('',(0.,0.,-19.));
#178=CARTESIAN_POINT('',(-67.5000000000004,67.5000000000004,0.));
#179=CARTESIAN_POINT('',(-67.5000000000004,67.5000000000004,0.));
#180=CARTESIAN_POINT('',(-67.5000000000004,48.5000000000004,0.));
#181=CARTESIAN_POINT('',(-67.5000000000004,67.5000000000004,0.));
#182=CARTESIAN_POINT('',(-67.5000000000004,88.5000000000004,0.));
#183=CARTESIAN_POINT('',(28.3350213920529,67.5000000000004,0.));
#184=CARTESIAN_POINT('',(0.,67.5000000000004,0.));
#185=CARTESIAN_POINT('',(0.,67.5000000000004,0.));
#186=CARTESIAN_POINT('',(0.,95.8350213920533,0.));
#187=CARTESIAN_POINT('',(0.,67.5000000000004,0.));
#188=CARTESIAN_POINT('',(0.,67.5000000000004,19.));
#189=CARTESIAN_POINT('',(28.3350213920529,67.5000000000004,0.));
#190=CARTESIAN_POINT('',(-1.28587913910472E-15,67.5000000000004,21.));
#191=CARTESIAN_POINT('',(-1.26546835911893E-15,67.5000000000004,21.));
#192=CARTESIAN_POINT('',(-1.22464679914735E-15,67.5000000000004,21.));
#193=CARTESIAN_POINT('',(-1.18382523917578E-15,67.5000000000004,21.));
#194=CARTESIAN_POINT('',(-1.16341445918999E-15,67.5000000000004,21.));
#195=CARTESIAN_POINT('',(2.74963214432156,69.9877624162914,21.0036996283072));
#196=CARTESIAN_POINT('',(2.70571277744147,70.0313474760988,21.0029290934246));
#197=CARTESIAN_POINT('',(2.61855673426474,70.1185567342652,21.0024402132878));
#198=CARTESIAN_POINT('',(2.53134747609835,70.2057127774418,21.0029290934246));
#199=CARTESIAN_POINT('',(2.48776241629094,70.2496321443219,21.0036996283072));
#200=CARTESIAN_POINT('',(6.87014672087813,73.7158470331758,20.1778292058885));
#201=CARTESIAN_POINT('',(6.76187083140624,73.8250636934945,20.2061682677842));
#202=CARTESIAN_POINT('',(6.54337735415466,74.043377354155,20.2334243021563));
#203=CARTESIAN_POINT('',(6.32506369349418,74.2618708314067,20.2061682677842));
#204=CARTESIAN_POINT('',(6.21584703317545,74.3701467208786,20.1778292058885));
#205=CARTESIAN_POINT('',(12.1482777340315,78.4912989022194,17.3564313947729));
#206=CARTESIAN_POINT('',(12.001341157877,78.6998342696321,17.4558915784436));
#207=CARTESIAN_POINT('',(11.6338896354421,79.1338896354424,17.5646067965553));
#208=CARTESIAN_POINT('',(11.1998342696317,79.5013411578773,17.4558915784436));
#209=CARTESIAN_POINT('',(10.991298902219,79.6482777340319,17.3564313947729));
#210=CARTESIAN_POINT('',(15.9702171772324,81.9492441127344,14.0057380553526));
#211=CARTESIAN_POINT('',(15.8356752891846,82.2447009700924,14.1620532453354));
#212=CARTESIAN_POINT('',(15.3848214674995,82.8848214674999,14.3492289967638));
#213=CARTESIAN_POINT('',(14.7447009700921,83.3356752891849,14.1620532453355));
#214=CARTESIAN_POINT('',(14.4492441127341,83.4702171772328,14.0057380553526));
#215=CARTESIAN_POINT('',(19.0510910180682,84.7367013973002,9.39479782982375));
#216=CARTESIAN_POINT('',(18.980850842545,85.1247259950375,9.56475190368415));
#217=CARTESIAN_POINT('',(18.5122460830824,86.0122460830829,9.79425635642734));
#218=CARTESIAN_POINT('',(17.6247259950373,86.4808508425453,9.56475190368414));
#219=CARTESIAN_POINT('',(17.2367013972998,86.5510910180686,9.39479782982375));
#220=CARTESIAN_POINT('',(20.6842995158196,86.214366228599,4.58150536173941));
#221=CARTESIAN_POINT('',(20.6807180347986,86.6668292530109,4.68589246908511));
#222=CARTESIAN_POINT('',(20.245745157641,87.7457451576413,4.83807257836301));
#223=CARTESIAN_POINT('',(19.1668292530104,88.1807180347991,4.68589246908511));
#224=CARTESIAN_POINT('',(18.7143662285987,88.18429951582,4.58150536173941));
#225=CARTESIAN_POINT('',(21.1353002075059,86.6224144734581,-6.26974364946461E-14));
#226=CARTESIAN_POINT('',(21.1545523460972,87.0949492093981,-6.21904491375465E-14));
#227=CARTESIAN_POINT('',(20.7360656283704,88.2360656283708,-6.84432932084411E-14));
#228=CARTESIAN_POINT('',(19.5949492093978,88.6545523460975,-6.3880406994545E-14));
#229=CARTESIAN_POINT('',(19.1224144734577,88.6353002075063,-6.26974364946461E-14));
#230=CARTESIAN_POINT('',(20.6842995158196,86.2143662285991,-4.58150536173935));
#231=CARTESIAN_POINT('',(20.6807180347986,86.6668292530108,-4.68589246908506));
#232=CARTESIAN_POINT('',(20.245745157641,87.7457451576414,-4.83807257836293));
#233=CARTESIAN_POINT('',(19.1668292530104,88.1807180347991,-4.68589246908505));
#234=CARTESIAN_POINT('',(18.7143662285987,88.1842995158199,-4.58150536173935));
#235=CARTESIAN_POINT('',(19.0510910180683,84.7367013973003,-9.39479782982358));
#236=CARTESIAN_POINT('',(18.9808508425451,85.1247259950376,-9.56475190368395));
#237=CARTESIAN_POINT('',(18.5122460830825,86.0122460830829,-9.79425635642717));
#238=CARTESIAN_POINT('',(17.6247259950373,86.4808508425454,-9.56475190368396));
#239=CARTESIAN_POINT('',(17.2367013972999,86.5510910180687,-9.39479782982358));
#240=CARTESIAN_POINT('',(15.9702171772322,81.9492441127343,-14.0057380553527));
#241=CARTESIAN_POINT('',(15.8356752891844,82.2447009700923,-14.1620532453356));
#242=CARTESIAN_POINT('',(15.3848214674994,82.8848214674997,-14.349228996764));
#243=CARTESIAN_POINT('',(14.744700970092,83.3356752891848,-14.1620532453356));
#244=CARTESIAN_POINT('',(14.4492441127339,83.4702171772326,-14.0057380553527));
#245=CARTESIAN_POINT('',(12.1482777340316,78.4912989022195,-17.3564313947728));
#246=CARTESIAN_POINT('',(12.0013411578771,78.6998342696322,-17.4558915784435));
#247=CARTESIAN_POINT('',(11.6338896354422,79.1338896354426,-17.5646067965552));
#248=CARTESIAN_POINT('',(11.1998342696318,79.5013411578775,-17.4558915784435));
#249=CARTESIAN_POINT('',(10.9912989022191,79.648277734032,-17.3564313947728));
#250=CARTESIAN_POINT('',(6.87014672087809,73.7158470331758,-20.1778292058885));
#251=CARTESIAN_POINT('',(6.7618708314062,73.8250636934945,-20.2061682677842));
#252=CARTESIAN_POINT('',(6.54337735415461,74.0433773541549,-20.2334243021563));
#253=CARTESIAN_POINT('',(6.32506369349414,74.2618708314066,-20.2061682677842));
#254=CARTESIAN_POINT('',(6.21584703317541,74.3701467208785,-20.1778292058885));
#255=CARTESIAN_POINT('',(2.7496321443217,69.9877624162915,-21.0036996283072));
#256=CARTESIAN_POINT('',(2.7057127774416,70.0313474760988,-21.0029290934246));
#257=CARTESIAN_POINT('',(2.61855673426487,70.1185567342653,-21.0024402132878));
#258=CARTESIAN_POINT('',(2.53134747609847,70.2057127774421,-21.0029290934246));
#259=CARTESIAN_POINT('',(2.48776241629106,70.2496321443221,-21.0036996283072));
#260=CARTESIAN_POINT('',(3.85763741731416E-15,67.5000000000004,-21.));
#261=CARTESIAN_POINT('',(3.7964050773568E-15,67.5000000000004,-21.));
#262=CARTESIAN_POINT('',(3.67394039744206E-15,67.5000000000004,-21.));
#263=CARTESIAN_POINT('',(3.55147571752732E-15,67.5000000000004,-21.));
#264=CARTESIAN_POINT('',(3.49024337756996E-15,67.5000000000004,-21.));
#265=CARTESIAN_POINT('',(4.22503145705837E-15,67.5000000000004,-21.));
#266=CARTESIAN_POINT('',(4.163799117101E-15,67.5000000000004,-21.));
#267=CARTESIAN_POINT('',(4.04133443718627E-15,67.5000000000004,-21.));
#268=CARTESIAN_POINT('',(3.91886975727153E-15,67.5000000000004,-21.));
#269=CARTESIAN_POINT('',(3.85763741731416E-15,67.5000000000004,-21.));
#270=CARTESIAN_POINT('',(-3.01150187235235,64.7503678556787,-21.0036996283072));
#271=CARTESIAN_POINT('',(-2.96791681254493,64.7064484887986,-21.0044701631897));
#272=CARTESIAN_POINT('',(-2.88070755437855,64.6192924456219,-21.0049590433266));
#273=CARTESIAN_POINT('',(-2.79355151120181,64.5320831874554,-21.0044701631897));
#274=CARTESIAN_POINT('',(-2.74963214432171,64.488498127648,-21.0036996283072));
#275=CARTESIAN_POINT('',(-7.52444640858053,60.6298532791225,-20.1778292058886));
#276=CARTESIAN_POINT('',(-7.41522974826181,60.5215773896506,-20.1494901439928));
#277=CARTESIAN_POINT('',(-7.19691608760133,60.303083912399,-20.1222341096207));
#278=CARTESIAN_POINT('',(-6.97842261034975,60.0847702517386,-20.1494901439929));
#279=CARTESIAN_POINT('',(-6.87014672087787,59.9755535914198,-20.1778292058886));
#280=CARTESIAN_POINT('',(-13.3052565658442,55.3517222659688,-17.3564313947728));
#281=CARTESIAN_POINT('',(-13.0967211984315,55.2047856898142,-17.256971211102));
#282=CARTESIAN_POINT('',(-12.6626658326211,54.8373341673794,-17.1482559929904));
#283=CARTESIAN_POINT('',(-12.2952143101862,54.4032788015689,-17.256971211102));
#284=CARTESIAN_POINT('',(-12.1482777340317,54.1947434341562,-17.3564313947728));
#285=CARTESIAN_POINT('',(-17.4911902417304,51.5297828227683,-14.0057380553528));
#286=CARTESIAN_POINT('',(-17.1957333843724,51.3952409347205,-13.84942286537));
#287=CARTESIAN_POINT('',(-16.555612886965,50.9443871130354,-13.6622471139416));
#288=CARTESIAN_POINT('',(-16.1047590652799,50.304266615628,-13.84942286537));
#289=CARTESIAN_POINT('',(-15.9702171772321,50.00880975827,-14.0057380553528));
#290=CARTESIAN_POINT('',(-20.8654806388366,48.4489089819322,-9.39479782982368));
#291=CARTESIAN_POINT('',(-20.4774560410991,48.3786688064089,-9.22484375596328));
#292=CARTESIAN_POINT('',(-19.589935953054,47.9100640469464,-8.9953393032201));
#293=CARTESIAN_POINT('',(-19.1213311935914,47.0225439589012,-9.22484375596328));
#294=CARTESIAN_POINT('',(-19.0510910180682,46.6345193611638,-9.39479782982368));
#295=CARTESIAN_POINT('',(-22.6542328030405,46.8157004841808,-4.58150536173944));
#296=CARTESIAN_POINT('',(-22.2017697786287,46.8121190031599,-4.47711825439373));
#297=CARTESIAN_POINT('',(-21.1228538739982,46.3771461260022,-4.32493814511584));
#298=CARTESIAN_POINT('',(-20.6878809968405,45.2982302213717,-4.47711825439373));
#299=CARTESIAN_POINT('',(-20.6842995158196,44.8457671969599,-4.58150536173944));
#300=CARTESIAN_POINT('',(-23.1481859415541,46.3646997924945,1.23704915132293E-13));
#301=CARTESIAN_POINT('',(-22.675651205614,46.3839519310857,1.21676965703895E-13));
#302=CARTESIAN_POINT('',(-21.5345347866414,45.965465213359,1.166070921329E-13));
#303=CARTESIAN_POINT('',(-21.1160480689146,44.8243487943864,1.20156003632597E-13));
#304=CARTESIAN_POINT('',(-21.1353002075059,44.3518140584463,1.23366923560894E-13));
#305=CARTESIAN_POINT('',(-22.6542328030405,46.8157004841809,4.58150536173933));
#306=CARTESIAN_POINT('',(-22.2017697786287,46.8121190031599,4.47711825439362));
#307=CARTESIAN_POINT('',(-21.1228538739982,46.3771461260023,4.32493814511574));
#308=CARTESIAN_POINT('',(-20.6878809968405,45.2982302213717,4.47711825439363));
#309=CARTESIAN_POINT('',(-20.6842995158196,44.84576719696,4.58150536173933));
#310=CARTESIAN_POINT('',(-20.8654806388367,48.4489089819321,9.39479782982358));
#311=CARTESIAN_POINT('',(-20.4774560410992,48.378668806409,9.2248437559632));
#312=CARTESIAN_POINT('',(-19.5899359530541,47.9100640469463,8.99533930322));
#313=CARTESIAN_POINT('',(-19.1213311935914,47.0225439589012,9.22484375596319));
#314=CARTESIAN_POINT('',(-19.0510910180683,46.6345193611637,9.39479782982358));
#315=CARTESIAN_POINT('',(-17.4911902417308,51.5297828227679,14.0057380553525));
#316=CARTESIAN_POINT('',(-17.1957333843727,51.3952409347201,13.8494228653697));
#317=CARTESIAN_POINT('',(-16.5556128869653,50.9443871130351,13.6622471139413));
#318=CARTESIAN_POINT('',(-16.1047590652802,50.3042666156276,13.8494228653697));
#319=CARTESIAN_POINT('',(-15.9702171772324,50.0088097582696,14.0057380553525));
#320=CARTESIAN_POINT('',(-13.3052565658441,55.3517222659689,17.3564313947728));
#321=CARTESIAN_POINT('',(-13.0967211984314,55.2047856898144,17.2569712111021));
#322=CARTESIAN_POINT('',(-12.662665832621,54.8373341673795,17.1482559929904));
#323=CARTESIAN_POINT('',(-12.2952143101861,54.403278801569,17.2569712111021));
#324=CARTESIAN_POINT('',(-12.1482777340316,54.1947434341563,17.3564313947728));
#325=CARTESIAN_POINT('',(-7.5244464085808,60.6298532791223,20.1778292058885));
#326=CARTESIAN_POINT('',(-7.41522974826207,60.5215773896503,20.1494901439927));
#327=CARTESIAN_POINT('',(-7.19691608760161,60.3030839123989,20.1222341096206));
#328=CARTESIAN_POINT('',(-6.97842261035,60.0847702517383,20.1494901439927));
#329=CARTESIAN_POINT('',(-6.87014672087811,59.9755535914196,20.1778292058885));
#330=CARTESIAN_POINT('',(-3.01150187235233,64.7503678556787,21.0036996283072));
#331=CARTESIAN_POINT('',(-2.96791681254492,64.7064484887986,21.0044701631898));
#332=CARTESIAN_POINT('',(-2.88070755437852,64.6192924456218,21.0049590433266));
#333=CARTESIAN_POINT('',(-2.7935515112018,64.5320831874555,21.0044701631898));
#334=CARTESIAN_POINT('',(-2.7496321443217,64.4884981276481,21.0036996283072));
#335=CARTESIAN_POINT('',(8.03040707933921E-14,67.5000000000005,21.));
#336=CARTESIAN_POINT('',(7.91402436804444E-14,67.5000000000005,21.));
#337=CARTESIAN_POINT('',(7.6812589454549E-14,67.5000000000005,21.));
#338=CARTESIAN_POINT('',(7.44849352286535E-14,67.5000000000005,21.));
#339=CARTESIAN_POINT('',(7.33211081157058E-14,67.5000000000005,21.));
#340=MECHANICAL_DESIGN_GEOMETRIC_PRESENTATION_REPRESENTATION('',(#108),
#341);
#341=(
GEOMETRIC_REPRESENTATION_CONTEXT(3)
GLOBAL_UNCERTAINTY_ASSIGNED_CONTEXT((#342))
GLOBAL_UNIT_ASSIGNED_CONTEXT((#345,#344,#343))
REPRESENTATION_CONTEXT('Eckbogen_90_Drad_X81','TOP_LEVEL_ASSEMBLY_PART')
);
#342=UNCERTAINTY_MEASURE_WITH_UNIT(LENGTH_MEASURE(0.005),#345,
'DISTANCE_ACCURACY_VALUE','Maximum Tolerance applied to model');
#343=(
NAMED_UNIT(*)
SI_UNIT($,.STERADIAN.)
SOLID_ANGLE_UNIT()
);
#344=(
NAMED_UNIT(*)
PLANE_ANGLE_UNIT()
SI_UNIT($,.RADIAN.)
);
#345=(
LENGTH_UNIT()
NAMED_UNIT(*)
SI_UNIT(.MILLI.,.METRE.)
);
#346=PRODUCT_DEFINITION_SHAPE('','',#347);
#347=PRODUCT_DEFINITION('','',#349,#348);
#348=PRODUCT_DEFINITION_CONTEXT('',#355,'design');
#349=PRODUCT_DEFINITION_FORMATION_WITH_SPECIFIED_SOURCE('','',#351,
 .NOT_KNOWN.);
#350=PRODUCT_RELATED_PRODUCT_CATEGORY('','',(#351));
#351=PRODUCT('Eckbogen_90_Drad_X81','Eckbogen_90_Drad_X81',
'Eckbogen_90_Drad_X81',(#353));
#352=PRODUCT_CATEGORY('','');
#353=PRODUCT_CONTEXT('',#355,'mechanical');
#354=APPLICATION_PROTOCOL_DEFINITION('international standard',
'automotive_design',2010,#355);
#355=APPLICATION_CONTEXT(
'core data for automotive mechanical design processes');
ENDSEC;
END-ISO-10303-21;
