ISO-10303-21;
HEADER;
/* Generated by software containing ST-Developer
 * from STEP Tools, Inc. (www.steptools.com) 
 */
/* OPTION: using custom schema-name function */

FILE_DESCRIPTION(
/* description */ (''),
/* implementation_level */ '2;1');

FILE_NAME(
/* name */ 'Stecksystemme_X90.stp',
/* time_stamp */ '2017-08-11T12:30:54+02:00',
/* author */ (''),
/* organization */ (''),
/* preprocessor_version */ 'ST-DEVELOPER v16',
/* originating_system */ 'SIEMENS PLM Software NX 11.0',
/* authorisation */ '');

FILE_SCHEMA (('AUTOMOTIVE_DESIGN { 1 0 10303 214 3 1 1 1 }'));
ENDSEC;

DATA;
#10=PROPERTY_DEFINITION_REPRESENTATION(#14,#12);
#11=PROPERTY_DEFINITION_REPRESENTATION(#15,#13);
#12=REPRESENTATION('',(#16),#133);
#13=REPRESENTATION('',(#17),#133);
#14=PROPERTY_DEFINITION('pmi validation property','',#21);
#15=PROPERTY_DEFINITION('pmi validation property','',#21);
#16=VALUE_REPRESENTATION_ITEM('number of annotations',COUNT_MEASURE(0.));
#17=VALUE_REPRESENTATION_ITEM('number of views',COUNT_MEASURE(0.));
#18=SHAPE_REPRESENTATION_RELATIONSHIP('None',
'relationship between Goge38A47EB9imzu-None and Goge38A47EB9imzu-None',
#30,#19);
#19=ADVANCED_BREP_SHAPE_REPRESENTATION('Goge38A47EB9imzu-None',(#40),#133);
#20=SHAPE_DEFINITION_REPRESENTATION(#21,#30);
#21=PRODUCT_DEFINITION_SHAPE('','',#22);
#22=PRODUCT_DEFINITION(' ','',#24,#23);
#23=PRODUCT_DEFINITION_CONTEXT('part definition',#29,'design');
#24=PRODUCT_DEFINITION_FORMATION_WITH_SPECIFIED_SOURCE(' ',' ',#26,
 .NOT_KNOWN.);
#25=PRODUCT_RELATED_PRODUCT_CATEGORY('part','',(#26));
#26=PRODUCT('Goge38A47EB9imzu','Goge38A47EB9imzu',' ',(#27));
#27=PRODUCT_CONTEXT(' ',#29,'mechanical');
#28=APPLICATION_PROTOCOL_DEFINITION('international standard',
'automotive_design',2010,#29);
#29=APPLICATION_CONTEXT(
'core data for automotive mechanical design processes');
#30=SHAPE_REPRESENTATION('Goge38A47EB9imzu-None',(#88),#133);
#31=PRESENTATION_LAYER_ASSIGNMENT('1','Layer 1',(#40));
#32=STYLED_ITEM('',(#33),#40);
#33=PRESENTATION_STYLE_ASSIGNMENT((#34));
#34=SURFACE_STYLE_USAGE(.BOTH.,#35);
#35=SURFACE_SIDE_STYLE('',(#36));
#36=SURFACE_STYLE_FILL_AREA(#37);
#37=FILL_AREA_STYLE('',(#38));
#38=FILL_AREA_STYLE_COLOUR('',#39);
#39=COLOUR_RGB('Medium Steel',0.596063172350652,0.666666666666667,0.686259250782025);
#40=MANIFOLD_SOLID_BREP('',#41);
#41=CLOSED_SHELL('',(#47,#48,#49,#50,#51));
#42=FACE_OUTER_BOUND('',#66,.T.);
#43=FACE_OUTER_BOUND('',#69,.T.);
#44=PLANE('',#93);
#45=PLANE('',#94);
#46=PLANE('',#97);
#47=ADVANCED_FACE('',(#56,#57),#52,.T.);
#48=ADVANCED_FACE('',(#58,#59),#44,.F.);
#49=ADVANCED_FACE('',(#42),#45,.T.);
#50=ADVANCED_FACE('',(#60,#61),#53,.F.);
#51=ADVANCED_FACE('',(#43),#46,.F.);
#52=CYLINDRICAL_SURFACE('',#91,20.5);
#53=CYLINDRICAL_SURFACE('',#96,18.5);
#54=ELLIPSE('',#90,28.9913780286485,20.5);
#55=ELLIPSE('',#95,26.1629509039023,18.5);
#56=FACE_BOUND('',#62,.T.);
#57=FACE_BOUND('',#63,.T.);
#58=FACE_BOUND('',#64,.T.);
#59=FACE_BOUND('',#65,.T.);
#60=FACE_BOUND('',#67,.T.);
#61=FACE_BOUND('',#68,.T.);
#62=EDGE_LOOP('',(#70));
#63=EDGE_LOOP('',(#71));
#64=EDGE_LOOP('',(#72));
#65=EDGE_LOOP('',(#73));
#66=EDGE_LOOP('',(#74));
#67=EDGE_LOOP('',(#75));
#68=EDGE_LOOP('',(#76));
#69=EDGE_LOOP('',(#77));
#70=ORIENTED_EDGE('',*,*,#82,.T.);
#71=ORIENTED_EDGE('',*,*,#83,.F.);
#72=ORIENTED_EDGE('',*,*,#84,.T.);
#73=ORIENTED_EDGE('',*,*,#82,.F.);
#74=ORIENTED_EDGE('',*,*,#83,.T.);
#75=ORIENTED_EDGE('',*,*,#84,.F.);
#76=ORIENTED_EDGE('',*,*,#85,.T.);
#77=ORIENTED_EDGE('',*,*,#85,.F.);
#78=VERTEX_POINT('',#120);
#79=VERTEX_POINT('',#122);
#80=VERTEX_POINT('',#125);
#81=VERTEX_POINT('',#129);
#82=EDGE_CURVE('',#78,#78,#86,.T.);
#83=EDGE_CURVE('',#79,#79,#54,.T.);
#84=EDGE_CURVE('',#80,#80,#87,.T.);
#85=EDGE_CURVE('',#81,#81,#55,.T.);
#86=CIRCLE('',#89,20.5);
#87=CIRCLE('',#92,18.5);
#88=AXIS2_PLACEMENT_3D('',#118,#98,#99);
#89=AXIS2_PLACEMENT_3D('',#119,#100,#101);
#90=AXIS2_PLACEMENT_3D('',#121,#102,#103);
#91=AXIS2_PLACEMENT_3D('',#123,#104,#105);
#92=AXIS2_PLACEMENT_3D('',#124,#106,#107);
#93=AXIS2_PLACEMENT_3D('',#126,#108,#109);
#94=AXIS2_PLACEMENT_3D('',#127,#110,#111);
#95=AXIS2_PLACEMENT_3D('',#128,#112,#113);
#96=AXIS2_PLACEMENT_3D('',#130,#114,#115);
#97=AXIS2_PLACEMENT_3D('',#131,#116,#117);
#98=DIRECTION('',(0.,0.,1.));
#99=DIRECTION('',(1.,0.,0.));
#100=DIRECTION('',(1.16381999822775E-15,1.,0.));
#101=DIRECTION('',(-1.,1.16381999822775E-15,0.));
#102=DIRECTION('',(-0.707106781186547,0.707106781186548,0.));
#103=DIRECTION('',(-0.707106781186548,-0.707106781186547,0.));
#104=DIRECTION('',(-1.16381999822775E-15,-1.,0.));
#105=DIRECTION('',(1.,-1.01544788837667E-15,0.));
#106=DIRECTION('',(1.16381999822775E-15,1.,0.));
#107=DIRECTION('',(-1.,1.16381999822775E-15,0.));
#108=DIRECTION('',(1.16381999822775E-15,1.,0.));
#109=DIRECTION('',(-1.,1.16381999822775E-15,0.));
#110=DIRECTION('',(-0.707106781186547,0.707106781186548,0.));
#111=DIRECTION('',(-0.707106781186548,-0.707106781186547,0.));
#112=DIRECTION('',(-0.707106781186547,0.707106781186548,0.));
#113=DIRECTION('',(-0.707106781186548,-0.707106781186547,0.));
#114=DIRECTION('',(-1.16381999822775E-15,-1.,0.));
#115=DIRECTION('',(1.,-1.12522603847144E-15,0.));
#116=DIRECTION('',(-0.707106781186547,0.707106781186548,0.));
#117=DIRECTION('',(-0.707106781186548,-0.707106781186547,0.));
#118=CARTESIAN_POINT('',(0.,0.,0.));
#119=CARTESIAN_POINT('',(19.5,0.,0.));
#120=CARTESIAN_POINT('',(-1.,2.38583099636689E-14,0.));
#121=CARTESIAN_POINT('',(19.5000000000001,64.5,0.));
#122=CARTESIAN_POINT('',(-0.999999999999956,44.,0.));
#123=CARTESIAN_POINT('',(19.5000000000001,58.,0.));
#124=CARTESIAN_POINT('',(19.5,0.,0.));
#125=CARTESIAN_POINT('',(0.999999999999997,2.15306699672134E-14,0.));
#126=CARTESIAN_POINT('',(19.5,0.,0.));
#127=CARTESIAN_POINT('',(2.27394697413344E-14,45.,0.));
#128=CARTESIAN_POINT('',(19.5000000000001,61.6715728752539,0.));
#129=CARTESIAN_POINT('',(1.00000000000004,43.1715728752538,0.));
#130=CARTESIAN_POINT('',(19.5000000000001,58.,0.));
#131=CARTESIAN_POINT('',(1.41421356237312,43.5857864376269,0.));
#132=MECHANICAL_DESIGN_GEOMETRIC_PRESENTATION_REPRESENTATION('',(#32),#133);
#133=(
GEOMETRIC_REPRESENTATION_CONTEXT(3)
GLOBAL_UNCERTAINTY_ASSIGNED_CONTEXT((#134))
GLOBAL_UNIT_ASSIGNED_CONTEXT((#140,#136,#135))
REPRESENTATION_CONTEXT('Stecksystemme_X90','TOP_LEVEL_ASSEMBLY_PART')
);
#134=UNCERTAINTY_MEASURE_WITH_UNIT(LENGTH_MEASURE(2.E-5),#140,
'DISTANCE_ACCURACY_VALUE','Maximum Tolerance applied to model');
#135=(
NAMED_UNIT(*)
SI_UNIT($,.STERADIAN.)
SOLID_ANGLE_UNIT()
);
#136=(
CONVERSION_BASED_UNIT('DEGREE',#138)
NAMED_UNIT(#137)
PLANE_ANGLE_UNIT()
);
#137=DIMENSIONAL_EXPONENTS(0.,0.,0.,0.,0.,0.,0.);
#138=PLANE_ANGLE_MEASURE_WITH_UNIT(PLANE_ANGLE_MEASURE(0.0174532925),#139);
#139=(
NAMED_UNIT(*)
PLANE_ANGLE_UNIT()
SI_UNIT($,.RADIAN.)
);
#140=(
LENGTH_UNIT()
NAMED_UNIT(*)
SI_UNIT(.MILLI.,.METRE.)
);
ENDSEC;
END-ISO-10303-21;
