ISO-10303-21;
HEADER;
/* Generated by software containing ST-Developer
 * from STEP Tools, Inc. (www.steptools.com) 
 */
/* OPTION: using custom schema-name function */

FILE_DESCRIPTION(
/* description */ (''),
/* implementation_level */ '2;1');

FILE_NAME(
/* name */ '1792_Cosch_Edelstahltechnik.stp',
/* time_stamp */ '2018-08-16T13:54:59+02:00',
/* author */ (''),
/* organization */ (''),
/* preprocessor_version */ 'ST-DEVELOPER v16',
/* originating_system */ 'SIEMENS PLM Software NX 11.0',
/* authorisation */ '');

FILE_SCHEMA (('AUTOMOTIVE_DESIGN { 1 0 10303 214 3 1 1 1 }'));
ENDSEC;

DATA;
#10=PROPERTY_DEFINITION_REPRESENTATION(#14,#12);
#11=PROPERTY_DEFINITION_REPRESENTATION(#15,#13);
#12=REPRESENTATION('',(#16),#309);
#13=REPRESENTATION('',(#17),#309);
#14=PROPERTY_DEFINITION('pmi validation property','',#21);
#15=PROPERTY_DEFINITION('pmi validation property','',#21);
#16=VALUE_REPRESENTATION_ITEM('number of annotations',COUNT_MEASURE(0.));
#17=VALUE_REPRESENTATION_ITEM('number of views',COUNT_MEASURE(0.));
#18=SHAPE_REPRESENTATION_RELATIONSHIP('None',
'relationship between Goge1C0C8D45jwp1-None and Goge1C0C8D45jwp1-None',
#30,#19);
#19=ADVANCED_BREP_SHAPE_REPRESENTATION('Goge1C0C8D45jwp1-None',(#40),#309);
#20=SHAPE_DEFINITION_REPRESENTATION(#21,#30);
#21=PRODUCT_DEFINITION_SHAPE('','',#22);
#22=PRODUCT_DEFINITION(' ','',#24,#23);
#23=PRODUCT_DEFINITION_CONTEXT('part definition',#29,'design');
#24=PRODUCT_DEFINITION_FORMATION_WITH_SPECIFIED_SOURCE(' ',' ',#26,
 .NOT_KNOWN.);
#25=PRODUCT_RELATED_PRODUCT_CATEGORY('part','',(#26));
#26=PRODUCT('Goge1C0C8D45jwp1','Goge1C0C8D45jwp1',' ',(#27));
#27=PRODUCT_CONTEXT(' ',#29,'mechanical');
#28=APPLICATION_PROTOCOL_DEFINITION('international standard',
'automotive_design',2010,#29);
#29=APPLICATION_CONTEXT(
'core data for automotive mechanical design processes');
#30=SHAPE_REPRESENTATION('Goge1C0C8D45jwp1-None',(#177),#309);
#31=PRESENTATION_LAYER_ASSIGNMENT('1','Layer 1',(#40));
#32=STYLED_ITEM('',(#33),#40);
#33=PRESENTATION_STYLE_ASSIGNMENT((#34));
#34=SURFACE_STYLE_USAGE(.BOTH.,#35);
#35=SURFACE_SIDE_STYLE('',(#36));
#36=SURFACE_STYLE_FILL_AREA(#37);
#37=FILL_AREA_STYLE('',(#38));
#38=FILL_AREA_STYLE_COLOUR('',#39);
#39=COLOUR_RGB('Medium Steel',0.596063172350652,0.666666666666667,0.686259250782025);
#40=MANIFOLD_SOLID_BREP('',#41);
#41=CLOSED_SHELL('',(#64,#65,#66,#67,#68,#69,#70,#71,#72,#73));
#42=CONICAL_SURFACE('',#198,10.,45.);
#43=CONICAL_SURFACE('',#199,8.25,45.);
#44=B_SPLINE_CURVE_WITH_KNOTS('',3,(#276,#277,#278,#279,#280,#281,#282,
#283),.UNSPECIFIED.,.F.,.F.,(4,2,2,4),(0.,0.25,0.5,1.),.UNSPECIFIED.);
#45=B_SPLINE_CURVE_WITH_KNOTS('',3,(#293,#294,#295,#296,#297,#298,#299,
#300,#301,#302),.UNSPECIFIED.,.F.,.F.,(4,2,2,2,4),(0.,0.25,0.5,0.75,1.),
 .UNSPECIFIED.);
#46=LINE('',#268,#50);
#47=LINE('',#272,#51);
#48=LINE('',#274,#52);
#49=LINE('',#287,#53);
#50=VECTOR('',#222,1.);
#51=VECTOR('',#225,1.);
#52=VECTOR('',#228,1.);
#53=VECTOR('',#233,1.);
#54=PLANE('',#182);
#55=PLANE('',#187);
#56=PLANE('',#197);
#57=FACE_OUTER_BOUND('',#87,.T.);
#58=FACE_OUTER_BOUND('',#90,.T.);
#59=FACE_OUTER_BOUND('',#91,.T.);
#60=FACE_OUTER_BOUND('',#92,.T.);
#61=FACE_OUTER_BOUND('',#93,.T.);
#62=FACE_OUTER_BOUND('',#94,.T.);
#63=FACE_OUTER_BOUND('',#97,.T.);
#64=ADVANCED_FACE('',(#79,#80),#74,.T.);
#65=ADVANCED_FACE('',(#57),#54,.F.);
#66=ADVANCED_FACE('',(#81,#82),#55,.T.);
#67=ADVANCED_FACE('',(#58),#75,.F.);
#68=ADVANCED_FACE('',(#59),#76,.T.);
#69=ADVANCED_FACE('',(#60),#77,.T.);
#70=ADVANCED_FACE('',(#61),#78,.T.);
#71=ADVANCED_FACE('',(#62),#56,.F.);
#72=ADVANCED_FACE('',(#83,#84),#42,.T.);
#73=ADVANCED_FACE('',(#63),#43,.T.);
#74=CYLINDRICAL_SURFACE('',#180,10.);
#75=CYLINDRICAL_SURFACE('',#189,7.5);
#76=CYLINDRICAL_SURFACE('',#191,0.624999999999999);
#77=CYLINDRICAL_SURFACE('',#193,8.75);
#78=CYLINDRICAL_SURFACE('',#195,0.625000000000001);
#79=FACE_BOUND('',#85,.T.);
#80=FACE_BOUND('',#86,.T.);
#81=FACE_BOUND('',#88,.T.);
#82=FACE_BOUND('',#89,.T.);
#83=FACE_BOUND('',#95,.T.);
#84=FACE_BOUND('',#96,.T.);
#85=EDGE_LOOP('',(#98));
#86=EDGE_LOOP('',(#99));
#87=EDGE_LOOP('',(#100));
#88=EDGE_LOOP('',(#101,#102,#103,#104));
#89=EDGE_LOOP('',(#105));
#90=EDGE_LOOP('',(#106,#107,#108,#109));
#91=EDGE_LOOP('',(#110,#111,#112,#113,#114));
#92=EDGE_LOOP('',(#115,#116,#117,#118));
#93=EDGE_LOOP('',(#119,#120,#121,#122,#123));
#94=EDGE_LOOP('',(#124,#125,#126,#127));
#95=EDGE_LOOP('',(#128));
#96=EDGE_LOOP('',(#129));
#97=EDGE_LOOP('',(#130,#131,#132,#133));
#98=ORIENTED_EDGE('',*,*,#147,.T.);
#99=ORIENTED_EDGE('',*,*,#148,.F.);
#100=ORIENTED_EDGE('',*,*,#149,.T.);
#101=ORIENTED_EDGE('',*,*,#150,.F.);
#102=ORIENTED_EDGE('',*,*,#151,.F.);
#103=ORIENTED_EDGE('',*,*,#152,.F.);
#104=ORIENTED_EDGE('',*,*,#153,.F.);
#105=ORIENTED_EDGE('',*,*,#148,.T.);
#106=ORIENTED_EDGE('',*,*,#150,.T.);
#107=ORIENTED_EDGE('',*,*,#154,.F.);
#108=ORIENTED_EDGE('',*,*,#155,.F.);
#109=ORIENTED_EDGE('',*,*,#156,.T.);
#110=ORIENTED_EDGE('',*,*,#157,.F.);
#111=ORIENTED_EDGE('',*,*,#158,.T.);
#112=ORIENTED_EDGE('',*,*,#159,.F.);
#113=ORIENTED_EDGE('',*,*,#154,.T.);
#114=ORIENTED_EDGE('',*,*,#153,.T.);
#115=ORIENTED_EDGE('',*,*,#160,.F.);
#116=ORIENTED_EDGE('',*,*,#161,.T.);
#117=ORIENTED_EDGE('',*,*,#157,.T.);
#118=ORIENTED_EDGE('',*,*,#152,.T.);
#119=ORIENTED_EDGE('',*,*,#162,.F.);
#120=ORIENTED_EDGE('',*,*,#163,.T.);
#121=ORIENTED_EDGE('',*,*,#160,.T.);
#122=ORIENTED_EDGE('',*,*,#151,.T.);
#123=ORIENTED_EDGE('',*,*,#156,.F.);
#124=ORIENTED_EDGE('',*,*,#159,.T.);
#125=ORIENTED_EDGE('',*,*,#164,.T.);
#126=ORIENTED_EDGE('',*,*,#162,.T.);
#127=ORIENTED_EDGE('',*,*,#155,.T.);
#128=ORIENTED_EDGE('',*,*,#149,.F.);
#129=ORIENTED_EDGE('',*,*,#147,.F.);
#130=ORIENTED_EDGE('',*,*,#158,.F.);
#131=ORIENTED_EDGE('',*,*,#161,.F.);
#132=ORIENTED_EDGE('',*,*,#163,.F.);
#133=ORIENTED_EDGE('',*,*,#164,.F.);
#134=VERTEX_POINT('',#252);
#135=VERTEX_POINT('',#254);
#136=VERTEX_POINT('',#257);
#137=VERTEX_POINT('',#260);
#138=VERTEX_POINT('',#261);
#139=VERTEX_POINT('',#263);
#140=VERTEX_POINT('',#265);
#141=VERTEX_POINT('',#269);
#142=VERTEX_POINT('',#271);
#143=VERTEX_POINT('',#275);
#144=VERTEX_POINT('',#284);
#145=VERTEX_POINT('',#288);
#146=VERTEX_POINT('',#292);
#147=EDGE_CURVE('',#134,#134,#165,.T.);
#148=EDGE_CURVE('',#135,#135,#166,.T.);
#149=EDGE_CURVE('',#136,#136,#167,.T.);
#150=EDGE_CURVE('',#137,#138,#168,.T.);
#151=EDGE_CURVE('',#139,#137,#169,.T.);
#152=EDGE_CURVE('',#140,#139,#170,.T.);
#153=EDGE_CURVE('',#138,#140,#171,.T.);
#154=EDGE_CURVE('',#141,#138,#46,.T.);
#155=EDGE_CURVE('',#142,#141,#172,.T.);
#156=EDGE_CURVE('',#142,#137,#47,.T.);
#157=EDGE_CURVE('',#143,#140,#48,.T.);
#158=EDGE_CURVE('',#143,#144,#44,.T.);
#159=EDGE_CURVE('',#141,#144,#173,.T.);
#160=EDGE_CURVE('',#145,#139,#49,.T.);
#161=EDGE_CURVE('',#145,#143,#174,.T.);
#162=EDGE_CURVE('',#146,#142,#175,.T.);
#163=EDGE_CURVE('',#146,#145,#45,.T.);
#164=EDGE_CURVE('',#144,#146,#176,.T.);
#165=CIRCLE('',#178,10.);
#166=CIRCLE('',#179,10.);
#167=CIRCLE('',#181,9.);
#168=CIRCLE('',#183,7.5);
#169=CIRCLE('',#184,0.625000000000001);
#170=CIRCLE('',#185,8.75);
#171=CIRCLE('',#186,0.624999999999999);
#172=CIRCLE('',#188,7.5);
#173=CIRCLE('',#190,0.624999999999999);
#174=CIRCLE('',#192,8.75);
#175=CIRCLE('',#194,0.625000000000001);
#176=CIRCLE('',#196,8.25);
#177=AXIS2_PLACEMENT_3D('',#250,#200,#201);
#178=AXIS2_PLACEMENT_3D('',#251,#202,#203);
#179=AXIS2_PLACEMENT_3D('',#253,#204,#205);
#180=AXIS2_PLACEMENT_3D('',#255,#206,#207);
#181=AXIS2_PLACEMENT_3D('',#256,#208,#209);
#182=AXIS2_PLACEMENT_3D('',#258,#210,#211);
#183=AXIS2_PLACEMENT_3D('',#259,#212,#213);
#184=AXIS2_PLACEMENT_3D('',#262,#214,#215);
#185=AXIS2_PLACEMENT_3D('',#264,#216,#217);
#186=AXIS2_PLACEMENT_3D('',#266,#218,#219);
#187=AXIS2_PLACEMENT_3D('',#267,#220,#221);
#188=AXIS2_PLACEMENT_3D('',#270,#223,#224);
#189=AXIS2_PLACEMENT_3D('',#273,#226,#227);
#190=AXIS2_PLACEMENT_3D('',#285,#229,#230);
#191=AXIS2_PLACEMENT_3D('',#286,#231,#232);
#192=AXIS2_PLACEMENT_3D('',#289,#234,#235);
#193=AXIS2_PLACEMENT_3D('',#290,#236,#237);
#194=AXIS2_PLACEMENT_3D('',#291,#238,#239);
#195=AXIS2_PLACEMENT_3D('',#303,#240,#241);
#196=AXIS2_PLACEMENT_3D('',#304,#242,#243);
#197=AXIS2_PLACEMENT_3D('',#305,#244,#245);
#198=AXIS2_PLACEMENT_3D('',#306,#246,#247);
#199=AXIS2_PLACEMENT_3D('',#307,#248,#249);
#200=DIRECTION('',(0.,0.,1.));
#201=DIRECTION('',(1.,0.,0.));
#202=DIRECTION('',(0.,0.,1.));
#203=DIRECTION('',(1.,0.,0.));
#204=DIRECTION('',(0.,0.,1.));
#205=DIRECTION('',(1.,0.,0.));
#206=DIRECTION('',(0.,0.,1.));
#207=DIRECTION('',(1.,0.,0.));
#208=DIRECTION('',(0.,0.,-1.));
#209=DIRECTION('',(1.,0.,0.));
#210=DIRECTION('',(0.,0.,1.));
#211=DIRECTION('',(1.,0.,0.));
#212=DIRECTION('',(0.,0.,-1.));
#213=DIRECTION('',(1.,1.22464679914735E-16,0.));
#214=DIRECTION('',(0.,0.,1.));
#215=DIRECTION('',(1.,0.,0.));
#216=DIRECTION('',(0.,0.,1.));
#217=DIRECTION('',(-1.,1.22464679914735E-16,0.));
#218=DIRECTION('',(0.,0.,1.));
#219=DIRECTION('',(1.,0.,0.));
#220=DIRECTION('',(0.,0.,1.));
#221=DIRECTION('',(1.,0.,0.));
#222=DIRECTION('',(0.,0.,-1.));
#223=DIRECTION('',(0.,0.,-1.));
#224=DIRECTION('',(-1.,0.,0.));
#225=DIRECTION('',(0.,0.,-1.));
#226=DIRECTION('',(0.,0.,-1.));
#227=DIRECTION('',(-1.,0.,0.));
#228=DIRECTION('',(0.,0.,-1.));
#229=DIRECTION('',(0.,0.,1.));
#230=DIRECTION('',(1.,0.,0.));
#231=DIRECTION('',(0.,0.,-1.));
#232=DIRECTION('',(-1.,0.,0.));
#233=DIRECTION('',(0.,0.,-1.));
#234=DIRECTION('',(0.,0.,-1.));
#235=DIRECTION('',(-1.,0.,0.));
#236=DIRECTION('',(0.,0.,-1.));
#237=DIRECTION('',(-1.,0.,0.));
#238=DIRECTION('',(0.,0.,1.));
#239=DIRECTION('',(1.,0.,0.));
#240=DIRECTION('',(0.,0.,-1.));
#241=DIRECTION('',(-1.,0.,0.));
#242=DIRECTION('',(0.,0.,1.));
#243=DIRECTION('',(-1.,0.,0.));
#244=DIRECTION('',(0.,0.,-1.));
#245=DIRECTION('',(-1.,0.,0.));
#246=DIRECTION('',(0.,0.,1.));
#247=DIRECTION('',(1.,0.,-8.58773998008321E-19));
#248=DIRECTION('',(0.,0.,-1.));
#249=DIRECTION('',(-1.,0.,1.03231746648756E-17));
#250=CARTESIAN_POINT('',(0.,0.,0.));
#251=CARTESIAN_POINT('',(0.,0.,-1.));
#252=CARTESIAN_POINT('',(10.,0.,-1.));
#253=CARTESIAN_POINT('',(0.,0.,0.));
#254=CARTESIAN_POINT('',(10.,0.,0.));
#255=CARTESIAN_POINT('',(0.,0.,-2.));
#256=CARTESIAN_POINT('',(0.,0.,-2.));
#257=CARTESIAN_POINT('',(9.,0.,-2.));
#258=CARTESIAN_POINT('',(0.,0.,-2.));
#259=CARTESIAN_POINT('',(0.,0.,0.));
#260=CARTESIAN_POINT('',(-4.25653336928785,-6.17510515506733,0.));
#261=CARTESIAN_POINT('',(4.25653336928785,-6.17510515506732,0.));
#262=CARTESIAN_POINT('',(-4.61124448339517,-6.68969725132294,0.));
#263=CARTESIAN_POINT('',(-4.96595559750249,-7.20428934757854,0.));
#264=CARTESIAN_POINT('',(0.,0.,0.));
#265=CARTESIAN_POINT('',(4.96595559750249,-7.20428934757855,0.));
#266=CARTESIAN_POINT('',(4.61124448339517,-6.68969725132294,0.));
#267=CARTESIAN_POINT('',(0.,0.,0.));
#268=CARTESIAN_POINT('',(4.25653336928785,-6.17510515506732,13.));
#269=CARTESIAN_POINT('',(4.25653336928785,-6.17510515506732,13.));
#270=CARTESIAN_POINT('',(0.,0.,13.));
#271=CARTESIAN_POINT('',(-4.25653336928785,-6.17510515506733,13.));
#272=CARTESIAN_POINT('',(-4.25653336928785,-6.17510515506733,13.));
#273=CARTESIAN_POINT('',(0.,0.,13.));
#274=CARTESIAN_POINT('',(4.96595559750249,-7.20428934757855,13.));
#275=CARTESIAN_POINT('',(4.96595559750249,-7.20428934757855,12.5));
#276=CARTESIAN_POINT('',(4.96595559750249,-7.20428934757855,12.5));
#277=CARTESIAN_POINT('',(4.89389470503054,-7.25396131035894,12.5));
#278=CARTESIAN_POINT('',(4.81309816928275,-7.28672275736128,12.5174988467248));
#279=CARTESIAN_POINT('',(4.65425665526206,-7.31845341903665,12.577272671079));
#280=CARTESIAN_POINT('',(4.57645437789114,-7.31787061167836,12.6191108875309));
#281=CARTESIAN_POINT('',(4.3635059858351,-7.28130449031804,12.7620139486828));
#282=CARTESIAN_POINT('',(4.2478359523964,-7.21321124040824,12.8789988472692));
#283=CARTESIAN_POINT('',(4.16138624464103,-7.12357807024897,12.9999999999988));
#284=CARTESIAN_POINT('',(4.16138624464509,-7.12357807024522,13.));
#285=CARTESIAN_POINT('',(4.61124448339517,-6.68969725132294,13.));
#286=CARTESIAN_POINT('',(4.61124448339517,-6.68969725132294,13.));
#287=CARTESIAN_POINT('',(-4.96595559750249,-7.20428934757854,13.));
#288=CARTESIAN_POINT('',(-4.96595559750249,-7.20428934757854,12.5));
#289=CARTESIAN_POINT('',(0.,0.,12.5));
#290=CARTESIAN_POINT('',(0.,0.,13.));
#291=CARTESIAN_POINT('',(-4.61124448339517,-6.68969725132294,13.));
#292=CARTESIAN_POINT('',(-4.16138624464509,-7.12357807024522,13.));
#293=CARTESIAN_POINT('',(-4.16138624464509,-7.12357807024522,13.));
#294=CARTESIAN_POINT('',(-4.20459153979994,-7.16837437636292,12.9395267994132));
#295=CARTESIAN_POINT('',(-4.25441320561139,-7.20697240676247,12.8810469489524));
#296=CARTESIAN_POINT('',(-4.36922549778288,-7.2696360048504,12.7684534860548));
#297=CARTESIAN_POINT('',(-4.43387109916367,-7.29329831849182,12.7148661179872));
#298=CARTESIAN_POINT('',(-4.57558037175923,-7.3178084173297,12.6196261454941));
#299=CARTESIAN_POINT('',(-4.65278187905434,-7.31866052120815,12.5778957519932));
#300=CARTESIAN_POINT('',(-4.81329244960306,-7.28677075555345,12.5173581718391));
#301=CARTESIAN_POINT('',(-4.89393923319083,-7.25393061685764,12.4999999999998));
#302=CARTESIAN_POINT('',(-4.96595559750259,-7.20428934757882,12.4999999999997));
#303=CARTESIAN_POINT('',(-4.61124448339517,-6.68969725132294,13.));
#304=CARTESIAN_POINT('',(0.,0.,13.));
#305=CARTESIAN_POINT('',(2.30562224169758,-3.34484862566147,13.));
#306=CARTESIAN_POINT('',(0.,0.,-1.));
#307=CARTESIAN_POINT('',(0.,0.,13.));
#308=MECHANICAL_DESIGN_GEOMETRIC_PRESENTATION_REPRESENTATION('',(#32),#309);
#309=(
GEOMETRIC_REPRESENTATION_CONTEXT(3)
GLOBAL_UNCERTAINTY_ASSIGNED_CONTEXT((#310))
GLOBAL_UNIT_ASSIGNED_CONTEXT((#316,#312,#311))
REPRESENTATION_CONTEXT('1792_Cosch_Edelstahltechnik',
'TOP_LEVEL_ASSEMBLY_PART')
);
#310=UNCERTAINTY_MEASURE_WITH_UNIT(LENGTH_MEASURE(0.00208),#316,
'DISTANCE_ACCURACY_VALUE','Maximum Tolerance applied to model');
#311=(
NAMED_UNIT(*)
SI_UNIT($,.STERADIAN.)
SOLID_ANGLE_UNIT()
);
#312=(
CONVERSION_BASED_UNIT('DEGREE',#314)
NAMED_UNIT(#313)
PLANE_ANGLE_UNIT()
);
#313=DIMENSIONAL_EXPONENTS(0.,0.,0.,0.,0.,0.,0.);
#314=PLANE_ANGLE_MEASURE_WITH_UNIT(PLANE_ANGLE_MEASURE(0.0174532925),#315);
#315=(
NAMED_UNIT(*)
PLANE_ANGLE_UNIT()
SI_UNIT($,.RADIAN.)
);
#316=(
LENGTH_UNIT()
NAMED_UNIT(*)
SI_UNIT(.MILLI.,.METRE.)
);
ENDSEC;
END-ISO-10303-21;
