ISO-10303-21;
HEADER;
/* Generated by software containing ST-Developer
 * from STEP Tools, Inc. (www.steptools.com) 
 */
/* OPTION: using custom schema-name function */

FILE_DESCRIPTION(
/* description */ (''),
/* implementation_level */ '2;1');

FILE_NAME(
/* name */ 'Pyramidenkappen_X128.stp',
/* time_stamp */ '2017-06-03T13:36:21+02:00',
/* author */ (''),
/* organization */ (''),
/* preprocessor_version */ 'ST-DEVELOPER v16',
/* originating_system */ 'SIEMENS PLM Software NX 11.0',
/* authorisation */ '');

FILE_SCHEMA (('AUTOMOTIVE_DESIGN { 1 0 10303 214 3 1 1 1 }'));
ENDSEC;

DATA;
#10=PROPERTY_DEFINITION_REPRESENTATION(#14,#12);
#11=PROPERTY_DEFINITION_REPRESENTATION(#15,#13);
#12=REPRESENTATION('',(#16),#445);
#13=REPRESENTATION('',(#17),#445);
#14=PROPERTY_DEFINITION('pmi validation property','',#21);
#15=PROPERTY_DEFINITION('pmi validation property','',#21);
#16=VALUE_REPRESENTATION_ITEM('number of annotations',COUNT_MEASURE(0.));
#17=VALUE_REPRESENTATION_ITEM('number of views',COUNT_MEASURE(0.));
#18=SHAPE_REPRESENTATION_RELATIONSHIP('None',
'relationship between Goge00E8C86Eyyq5-None and Goge00E8C86Eyyq5-None',
#30,#19);
#19=ADVANCED_BREP_SHAPE_REPRESENTATION('Goge00E8C86Eyyq5-None',(#40),#445);
#20=SHAPE_DEFINITION_REPRESENTATION(#21,#30);
#21=PRODUCT_DEFINITION_SHAPE('','',#22);
#22=PRODUCT_DEFINITION(' ','',#24,#23);
#23=PRODUCT_DEFINITION_CONTEXT('part definition',#29,'design');
#24=PRODUCT_DEFINITION_FORMATION_WITH_SPECIFIED_SOURCE(' ',' ',#26,
 .NOT_KNOWN.);
#25=PRODUCT_RELATED_PRODUCT_CATEGORY('part','',(#26));
#26=PRODUCT('Goge00E8C86Eyyq5','Goge00E8C86Eyyq5',' ',(#27));
#27=PRODUCT_CONTEXT(' ',#29,'mechanical');
#28=APPLICATION_PROTOCOL_DEFINITION('international standard',
'automotive_design',2010,#29);
#29=APPLICATION_CONTEXT(
'core data for automotive mechanical design processes');
#30=SHAPE_REPRESENTATION('Goge00E8C86Eyyq5-None',(#290),#445);
#31=PRESENTATION_LAYER_ASSIGNMENT('1','Layer 1',(#40));
#32=STYLED_ITEM('',(#33),#40);
#33=PRESENTATION_STYLE_ASSIGNMENT((#34));
#34=SURFACE_STYLE_USAGE(.BOTH.,#35);
#35=SURFACE_SIDE_STYLE('',(#36));
#36=SURFACE_STYLE_FILL_AREA(#37);
#37=FILL_AREA_STYLE('',(#38));
#38=FILL_AREA_STYLE_COLOUR('',#39);
#39=COLOUR_RGB('Medium Steel',0.596063172350652,0.666666666666667,0.686259250782025);
#40=MANIFOLD_SOLID_BREP('',#41);
#41=CLOSED_SHELL('',(#44,#45,#46,#47,#48,#49,#50,#51,#52,#53,#54,#55,#56,
#57,#58,#59,#60));
#42=FACE_BOUND('',#110,.T.);
#43=FACE_BOUND('',#111,.T.);
#44=ADVANCED_FACE('',(#78),#61,.T.);
#45=ADVANCED_FACE('',(#79),#62,.T.);
#46=ADVANCED_FACE('',(#80),#63,.T.);
#47=ADVANCED_FACE('',(#81),#64,.T.);
#48=ADVANCED_FACE('',(#82),#65,.T.);
#49=ADVANCED_FACE('',(#83),#66,.T.);
#50=ADVANCED_FACE('',(#84),#67,.T.);
#51=ADVANCED_FACE('',(#85),#68,.T.);
#52=ADVANCED_FACE('',(#86),#69,.F.);
#53=ADVANCED_FACE('',(#87),#70,.F.);
#54=ADVANCED_FACE('',(#88),#71,.F.);
#55=ADVANCED_FACE('',(#89),#72,.F.);
#56=ADVANCED_FACE('',(#90),#73,.F.);
#57=ADVANCED_FACE('',(#91),#74,.F.);
#58=ADVANCED_FACE('',(#92),#75,.F.);
#59=ADVANCED_FACE('',(#93),#76,.F.);
#60=ADVANCED_FACE('',(#42,#43),#77,.F.);
#61=PLANE('',#291);
#62=PLANE('',#292);
#63=PLANE('',#293);
#64=PLANE('',#294);
#65=PLANE('',#295);
#66=PLANE('',#296);
#67=PLANE('',#297);
#68=PLANE('',#298);
#69=PLANE('',#299);
#70=PLANE('',#300);
#71=PLANE('',#301);
#72=PLANE('',#302);
#73=PLANE('',#303);
#74=PLANE('',#304);
#75=PLANE('',#305);
#76=PLANE('',#306);
#77=PLANE('',#307);
#78=FACE_OUTER_BOUND('',#94,.T.);
#79=FACE_OUTER_BOUND('',#95,.T.);
#80=FACE_OUTER_BOUND('',#96,.T.);
#81=FACE_OUTER_BOUND('',#97,.T.);
#82=FACE_OUTER_BOUND('',#98,.T.);
#83=FACE_OUTER_BOUND('',#99,.T.);
#84=FACE_OUTER_BOUND('',#100,.T.);
#85=FACE_OUTER_BOUND('',#101,.T.);
#86=FACE_OUTER_BOUND('',#102,.T.);
#87=FACE_OUTER_BOUND('',#103,.T.);
#88=FACE_OUTER_BOUND('',#104,.T.);
#89=FACE_OUTER_BOUND('',#105,.T.);
#90=FACE_OUTER_BOUND('',#106,.T.);
#91=FACE_OUTER_BOUND('',#107,.T.);
#92=FACE_OUTER_BOUND('',#108,.T.);
#93=FACE_OUTER_BOUND('',#109,.T.);
#94=EDGE_LOOP('',(#112,#113,#114));
#95=EDGE_LOOP('',(#115,#116,#117));
#96=EDGE_LOOP('',(#118,#119,#120));
#97=EDGE_LOOP('',(#121,#122,#123));
#98=EDGE_LOOP('',(#124,#125,#126,#127));
#99=EDGE_LOOP('',(#128,#129,#130,#131));
#100=EDGE_LOOP('',(#132,#133,#134,#135));
#101=EDGE_LOOP('',(#136,#137,#138,#139));
#102=EDGE_LOOP('',(#140,#141,#142));
#103=EDGE_LOOP('',(#143,#144,#145));
#104=EDGE_LOOP('',(#146,#147,#148));
#105=EDGE_LOOP('',(#149,#150,#151));
#106=EDGE_LOOP('',(#152,#153,#154,#155));
#107=EDGE_LOOP('',(#156,#157,#158,#159));
#108=EDGE_LOOP('',(#160,#161,#162,#163));
#109=EDGE_LOOP('',(#164,#165,#166,#167));
#110=EDGE_LOOP('',(#168,#169,#170,#171));
#111=EDGE_LOOP('',(#172,#173,#174,#175));
#112=ORIENTED_EDGE('',*,*,#194,.F.);
#113=ORIENTED_EDGE('',*,*,#195,.T.);
#114=ORIENTED_EDGE('',*,*,#196,.F.);
#115=ORIENTED_EDGE('',*,*,#197,.T.);
#116=ORIENTED_EDGE('',*,*,#198,.F.);
#117=ORIENTED_EDGE('',*,*,#199,.F.);
#118=ORIENTED_EDGE('',*,*,#196,.T.);
#119=ORIENTED_EDGE('',*,*,#200,.T.);
#120=ORIENTED_EDGE('',*,*,#199,.T.);
#121=ORIENTED_EDGE('',*,*,#194,.T.);
#122=ORIENTED_EDGE('',*,*,#198,.T.);
#123=ORIENTED_EDGE('',*,*,#201,.F.);
#124=ORIENTED_EDGE('',*,*,#202,.F.);
#125=ORIENTED_EDGE('',*,*,#203,.F.);
#126=ORIENTED_EDGE('',*,*,#197,.F.);
#127=ORIENTED_EDGE('',*,*,#204,.T.);
#128=ORIENTED_EDGE('',*,*,#205,.T.);
#129=ORIENTED_EDGE('',*,*,#206,.T.);
#130=ORIENTED_EDGE('',*,*,#204,.F.);
#131=ORIENTED_EDGE('',*,*,#200,.F.);
#132=ORIENTED_EDGE('',*,*,#207,.T.);
#133=ORIENTED_EDGE('',*,*,#208,.T.);
#134=ORIENTED_EDGE('',*,*,#205,.F.);
#135=ORIENTED_EDGE('',*,*,#195,.F.);
#136=ORIENTED_EDGE('',*,*,#203,.T.);
#137=ORIENTED_EDGE('',*,*,#209,.T.);
#138=ORIENTED_EDGE('',*,*,#207,.F.);
#139=ORIENTED_EDGE('',*,*,#201,.T.);
#140=ORIENTED_EDGE('',*,*,#210,.T.);
#141=ORIENTED_EDGE('',*,*,#211,.T.);
#142=ORIENTED_EDGE('',*,*,#212,.F.);
#143=ORIENTED_EDGE('',*,*,#213,.F.);
#144=ORIENTED_EDGE('',*,*,#214,.T.);
#145=ORIENTED_EDGE('',*,*,#215,.T.);
#146=ORIENTED_EDGE('',*,*,#211,.F.);
#147=ORIENTED_EDGE('',*,*,#214,.F.);
#148=ORIENTED_EDGE('',*,*,#216,.F.);
#149=ORIENTED_EDGE('',*,*,#210,.F.);
#150=ORIENTED_EDGE('',*,*,#217,.T.);
#151=ORIENTED_EDGE('',*,*,#215,.F.);
#152=ORIENTED_EDGE('',*,*,#218,.T.);
#153=ORIENTED_EDGE('',*,*,#219,.F.);
#154=ORIENTED_EDGE('',*,*,#213,.T.);
#155=ORIENTED_EDGE('',*,*,#220,.T.);
#156=ORIENTED_EDGE('',*,*,#221,.T.);
#157=ORIENTED_EDGE('',*,*,#222,.F.);
#158=ORIENTED_EDGE('',*,*,#216,.T.);
#159=ORIENTED_EDGE('',*,*,#219,.T.);
#160=ORIENTED_EDGE('',*,*,#223,.T.);
#161=ORIENTED_EDGE('',*,*,#224,.F.);
#162=ORIENTED_EDGE('',*,*,#212,.T.);
#163=ORIENTED_EDGE('',*,*,#222,.T.);
#164=ORIENTED_EDGE('',*,*,#225,.T.);
#165=ORIENTED_EDGE('',*,*,#220,.F.);
#166=ORIENTED_EDGE('',*,*,#217,.F.);
#167=ORIENTED_EDGE('',*,*,#224,.T.);
#168=ORIENTED_EDGE('',*,*,#206,.F.);
#169=ORIENTED_EDGE('',*,*,#208,.F.);
#170=ORIENTED_EDGE('',*,*,#209,.F.);
#171=ORIENTED_EDGE('',*,*,#202,.T.);
#172=ORIENTED_EDGE('',*,*,#218,.F.);
#173=ORIENTED_EDGE('',*,*,#225,.F.);
#174=ORIENTED_EDGE('',*,*,#223,.F.);
#175=ORIENTED_EDGE('',*,*,#221,.F.);
#176=VERTEX_POINT('',#378);
#177=VERTEX_POINT('',#379);
#178=VERTEX_POINT('',#381);
#179=VERTEX_POINT('',#385);
#180=VERTEX_POINT('',#386);
#181=VERTEX_POINT('',#395);
#182=VERTEX_POINT('',#396);
#183=VERTEX_POINT('',#401);
#184=VERTEX_POINT('',#405);
#185=VERTEX_POINT('',#411);
#186=VERTEX_POINT('',#412);
#187=VERTEX_POINT('',#414);
#188=VERTEX_POINT('',#418);
#189=VERTEX_POINT('',#419);
#190=VERTEX_POINT('',#428);
#191=VERTEX_POINT('',#429);
#192=VERTEX_POINT('',#434);
#193=VERTEX_POINT('',#438);
#194=EDGE_CURVE('',#176,#177,#226,.T.);
#195=EDGE_CURVE('',#176,#178,#227,.T.);
#196=EDGE_CURVE('',#177,#178,#228,.T.);
#197=EDGE_CURVE('',#179,#180,#229,.T.);
#198=EDGE_CURVE('',#177,#180,#230,.T.);
#199=EDGE_CURVE('',#179,#177,#231,.T.);
#200=EDGE_CURVE('',#178,#179,#232,.T.);
#201=EDGE_CURVE('',#176,#180,#233,.T.);
#202=EDGE_CURVE('',#181,#182,#234,.T.);
#203=EDGE_CURVE('',#180,#181,#235,.T.);
#204=EDGE_CURVE('',#179,#182,#236,.T.);
#205=EDGE_CURVE('',#178,#183,#237,.T.);
#206=EDGE_CURVE('',#183,#182,#238,.T.);
#207=EDGE_CURVE('',#176,#184,#239,.T.);
#208=EDGE_CURVE('',#184,#183,#240,.T.);
#209=EDGE_CURVE('',#181,#184,#241,.T.);
#210=EDGE_CURVE('',#185,#186,#242,.T.);
#211=EDGE_CURVE('',#186,#187,#243,.T.);
#212=EDGE_CURVE('',#185,#187,#244,.T.);
#213=EDGE_CURVE('',#188,#189,#245,.T.);
#214=EDGE_CURVE('',#188,#186,#246,.T.);
#215=EDGE_CURVE('',#186,#189,#247,.T.);
#216=EDGE_CURVE('',#187,#188,#248,.T.);
#217=EDGE_CURVE('',#185,#189,#249,.T.);
#218=EDGE_CURVE('',#190,#191,#250,.T.);
#219=EDGE_CURVE('',#188,#191,#251,.T.);
#220=EDGE_CURVE('',#189,#190,#252,.T.);
#221=EDGE_CURVE('',#191,#192,#253,.T.);
#222=EDGE_CURVE('',#187,#192,#254,.T.);
#223=EDGE_CURVE('',#192,#193,#255,.T.);
#224=EDGE_CURVE('',#185,#193,#256,.T.);
#225=EDGE_CURVE('',#193,#190,#257,.T.);
#226=LINE('',#377,#258);
#227=LINE('',#380,#259);
#228=LINE('',#382,#260);
#229=LINE('',#384,#261);
#230=LINE('',#387,#262);
#231=LINE('',#388,#263);
#232=LINE('',#390,#264);
#233=LINE('',#392,#265);
#234=LINE('',#394,#266);
#235=LINE('',#397,#267);
#236=LINE('',#398,#268);
#237=LINE('',#400,#269);
#238=LINE('',#402,#270);
#239=LINE('',#404,#271);
#240=LINE('',#406,#272);
#241=LINE('',#408,#273);
#242=LINE('',#410,#274);
#243=LINE('',#413,#275);
#244=LINE('',#415,#276);
#245=LINE('',#417,#277);
#246=LINE('',#420,#278);
#247=LINE('',#421,#279);
#248=LINE('',#423,#280);
#249=LINE('',#425,#281);
#250=LINE('',#427,#282);
#251=LINE('',#430,#283);
#252=LINE('',#431,#284);
#253=LINE('',#433,#285);
#254=LINE('',#435,#286);
#255=LINE('',#437,#287);
#256=LINE('',#439,#288);
#257=LINE('',#441,#289);
#258=VECTOR('',#310,1.);
#259=VECTOR('',#311,1.);
#260=VECTOR('',#312,1.);
#261=VECTOR('',#315,1.);
#262=VECTOR('',#316,1.);
#263=VECTOR('',#317,1.);
#264=VECTOR('',#320,1.);
#265=VECTOR('',#323,1.);
#266=VECTOR('',#326,1.);
#267=VECTOR('',#327,1.);
#268=VECTOR('',#328,1.);
#269=VECTOR('',#331,1.);
#270=VECTOR('',#332,1.);
#271=VECTOR('',#335,1.);
#272=VECTOR('',#336,1.);
#273=VECTOR('',#339,1.);
#274=VECTOR('',#342,1.);
#275=VECTOR('',#343,1.);
#276=VECTOR('',#344,1.);
#277=VECTOR('',#347,1.);
#278=VECTOR('',#348,1.);
#279=VECTOR('',#349,1.);
#280=VECTOR('',#352,1.);
#281=VECTOR('',#355,1.);
#282=VECTOR('',#358,1.);
#283=VECTOR('',#359,1.);
#284=VECTOR('',#360,1.);
#285=VECTOR('',#363,1.);
#286=VECTOR('',#364,1.);
#287=VECTOR('',#367,1.);
#288=VECTOR('',#368,1.);
#289=VECTOR('',#371,1.);
#290=AXIS2_PLACEMENT_3D('',#376,#308,#309);
#291=AXIS2_PLACEMENT_3D('',#383,#313,#314);
#292=AXIS2_PLACEMENT_3D('',#389,#318,#319);
#293=AXIS2_PLACEMENT_3D('',#391,#321,#322);
#294=AXIS2_PLACEMENT_3D('',#393,#324,#325);
#295=AXIS2_PLACEMENT_3D('',#399,#329,#330);
#296=AXIS2_PLACEMENT_3D('',#403,#333,#334);
#297=AXIS2_PLACEMENT_3D('',#407,#337,#338);
#298=AXIS2_PLACEMENT_3D('',#409,#340,#341);
#299=AXIS2_PLACEMENT_3D('',#416,#345,#346);
#300=AXIS2_PLACEMENT_3D('',#422,#350,#351);
#301=AXIS2_PLACEMENT_3D('',#424,#353,#354);
#302=AXIS2_PLACEMENT_3D('',#426,#356,#357);
#303=AXIS2_PLACEMENT_3D('',#432,#361,#362);
#304=AXIS2_PLACEMENT_3D('',#436,#365,#366);
#305=AXIS2_PLACEMENT_3D('',#440,#369,#370);
#306=AXIS2_PLACEMENT_3D('',#442,#372,#373);
#307=AXIS2_PLACEMENT_3D('',#443,#374,#375);
#308=DIRECTION('',(0.,0.,1.));
#309=DIRECTION('',(1.,0.,0.));
#310=DIRECTION('',(-0.691714463866075,-0.691714463866074,0.207514339159824));
#311=DIRECTION('',(-1.21430643318377E-15,-1.,3.64291929955132E-16));
#312=DIRECTION('',(0.691714463866072,-0.691714463866077,-0.207514339159823));
#313=DIRECTION('',(-0.287347885566347,0.,-0.957826285221151));
#314=DIRECTION('',(-0.957826285221151,0.,0.287347885566347));
#315=DIRECTION('',(1.21430643318377E-15,1.,3.6429192995513E-16));
#316=DIRECTION('',(-0.691714463866076,0.691714463866073,-0.207514339159823));
#317=DIRECTION('',(0.691714463866074,0.691714463866075,0.207514339159823));
#318=DIRECTION('',(0.287347885566346,0.,-0.957826285221151));
#319=DIRECTION('',(-0.957826285221151,0.,-0.287347885566346));
#320=DIRECTION('',(-1.,0.,0.));
#321=DIRECTION('',(0.,0.287347885566345,-0.957826285221151));
#322=DIRECTION('',(0.,0.957826285221152,0.287347885566346));
#323=DIRECTION('',(-1.,0.,0.));
#324=DIRECTION('',(0.,-0.287347885566347,-0.957826285221151));
#325=DIRECTION('',(0.,0.957826285221151,-0.287347885566347));
#326=DIRECTION('',(-1.21430643318377E-15,-1.,0.));
#327=DIRECTION('',(0.,0.,-1.));
#328=DIRECTION('',(0.,0.,-1.));
#329=DIRECTION('',(1.,-1.21430643318377E-15,0.));
#330=DIRECTION('',(1.21430643318377E-15,1.,0.));
#331=DIRECTION('',(0.,0.,-1.));
#332=DIRECTION('',(-1.,0.,0.));
#333=DIRECTION('',(0.,1.,0.));
#334=DIRECTION('',(0.,0.,1.));
#335=DIRECTION('',(0.,0.,-1.));
#336=DIRECTION('',(-1.21430643318377E-15,-1.,0.));
#337=DIRECTION('',(-1.,1.21430643318377E-15,0.));
#338=DIRECTION('',(-1.21430643318377E-15,-1.,0.));
#339=DIRECTION('',(1.,0.,0.));
#340=DIRECTION('',(0.,-1.,0.));
#341=DIRECTION('',(0.,0.,-1.));
#342=DIRECTION('',(-0.691714463866075,-0.691714463866074,0.207514339159824));
#343=DIRECTION('',(0.691714463866072,-0.691714463866077,-0.207514339159823));
#344=DIRECTION('',(-1.21430643318377E-15,-1.,3.64291929955132E-16));
#345=DIRECTION('',(-0.287347885566347,0.,-0.957826285221151));
#346=DIRECTION('',(-0.957826285221151,0.,0.287347885566347));
#347=DIRECTION('',(1.21430643318377E-15,1.,3.6429192995513E-16));
#348=DIRECTION('',(0.691714463866074,0.691714463866075,0.207514339159823));
#349=DIRECTION('',(-0.691714463866076,0.691714463866073,-0.207514339159823));
#350=DIRECTION('',(0.287347885566346,0.,-0.957826285221151));
#351=DIRECTION('',(-0.957826285221151,0.,-0.287347885566346));
#352=DIRECTION('',(-1.,0.,0.));
#353=DIRECTION('',(0.,0.287347885566345,-0.957826285221151));
#354=DIRECTION('',(0.,0.957826285221152,0.287347885566346));
#355=DIRECTION('',(-1.,0.,0.));
#356=DIRECTION('',(0.,-0.287347885566347,-0.957826285221151));
#357=DIRECTION('',(0.,0.957826285221151,-0.287347885566347));
#358=DIRECTION('',(-1.21430643318377E-15,-1.,0.));
#359=DIRECTION('',(0.,0.,-1.));
#360=DIRECTION('',(0.,0.,-1.));
#361=DIRECTION('',(1.,-1.21430643318377E-15,0.));
#362=DIRECTION('',(1.21430643318377E-15,1.,0.));
#363=DIRECTION('',(1.,0.,0.));
#364=DIRECTION('',(0.,0.,-1.));
#365=DIRECTION('',(0.,1.,0.));
#366=DIRECTION('',(0.,0.,1.));
#367=DIRECTION('',(1.21430643318377E-15,1.,0.));
#368=DIRECTION('',(0.,0.,-1.));
#369=DIRECTION('',(-1.,1.21430643318377E-15,0.));
#370=DIRECTION('',(-1.21430643318377E-15,-1.,0.));
#371=DIRECTION('',(-1.,0.,0.));
#372=DIRECTION('',(0.,-1.,0.));
#373=DIRECTION('',(0.,0.,-1.));
#374=DIRECTION('',(0.,0.,1.));
#375=DIRECTION('',(1.,0.,0.));
#376=CARTESIAN_POINT('',(0.,0.,0.));
#377=CARTESIAN_POINT('',(0.421141725884705,0.421141725884703,10.807611505898));
#378=CARTESIAN_POINT('',(13.5,13.5,6.88395402366339));
#379=CARTESIAN_POINT('',(-1.00288700954909E-15,8.67361737988404E-16,10.9339540236634));
#380=CARTESIAN_POINT('',(13.5,-15.,6.8839540236634));
#381=CARTESIAN_POINT('',(13.5,-13.5,6.88395402366341));
#382=CARTESIAN_POINT('',(14.7752087115306,-14.7752087115307,6.50139141020422));
#383=CARTESIAN_POINT('',(14.5689781716505,-15.,6.56326057216825));
#384=CARTESIAN_POINT('',(-13.5,15.,6.88395402366341));
#385=CARTESIAN_POINT('',(-13.5,-13.5,6.88395402366341));
#386=CARTESIAN_POINT('',(-13.5,13.5,6.8839540236634));
#387=CARTESIAN_POINT('',(7.40182478129233,-7.4018247812923,13.1545014580511));
#388=CARTESIAN_POINT('',(-6.9522422043536,-6.95224220435361,8.84828136235734));
#389=CARTESIAN_POINT('',(0.431021828349519,-15.,11.0632605721683));
#390=CARTESIAN_POINT('',(-15.,-13.5,6.88395402366342));
#391=CARTESIAN_POINT('',(15.,0.431021828349518,11.0632605721683));
#392=CARTESIAN_POINT('',(15.,13.5,6.88395402366339));
#393=CARTESIAN_POINT('',(15.,14.5689781716505,6.56326057216825));
#394=CARTESIAN_POINT('',(-13.5,15.,-1.5));
#395=CARTESIAN_POINT('',(-13.5,13.5,-1.5));
#396=CARTESIAN_POINT('',(-13.5,-13.5,-1.5));
#397=CARTESIAN_POINT('',(-13.5,13.5,8.));
#398=CARTESIAN_POINT('',(-13.5,-13.5,8.));
#399=CARTESIAN_POINT('',(-13.5,15.,8.));
#400=CARTESIAN_POINT('',(13.5,-13.5,8.));
#401=CARTESIAN_POINT('',(13.5,-13.5,-1.5));
#402=CARTESIAN_POINT('',(0.,-13.5,-1.5));
#403=CARTESIAN_POINT('',(-15.,-13.5,8.));
#404=CARTESIAN_POINT('',(13.5,13.5,8.));
#405=CARTESIAN_POINT('',(13.5,13.5,-1.5));
#406=CARTESIAN_POINT('',(13.5,-1.63931368479808E-14,-1.5));
#407=CARTESIAN_POINT('',(13.5,-15.,8.));
#408=CARTESIAN_POINT('',(0.,13.5,-1.5));
#409=CARTESIAN_POINT('',(15.,13.5,8.));
#410=CARTESIAN_POINT('',(0.870724302823438,0.87072430282344,13.8048286854896));
#411=CARTESIAN_POINT('',(16.5,16.5,9.11604597633655));
#412=CARTESIAN_POINT('',(2.60208521396521E-15,8.67361737988404E-16,14.0660459763366));
#413=CARTESIAN_POINT('',(15.2247912884693,-15.2247912884694,9.49860858979576));
#414=CARTESIAN_POINT('',(16.4999999999999,-16.5,9.11604597633657));
#415=CARTESIAN_POINT('',(16.5,-15.,9.11604597633656));
#416=CARTESIAN_POINT('',(15.4310218283495,-15.,9.4367394278317));
#417=CARTESIAN_POINT('',(-16.5,15.,9.11604597633658));
#418=CARTESIAN_POINT('',(-16.5,-16.5,9.11604597633657));
#419=CARTESIAN_POINT('',(-16.5,16.5,9.11604597633656));
#420=CARTESIAN_POINT('',(-7.40182478129233,-7.40182478129235,11.8454985419489));
#421=CARTESIAN_POINT('',(6.9522422043536,-6.95224220435356,16.1517186376427));
#422=CARTESIAN_POINT('',(-0.431021828349519,-15.,13.9367394278317));
#423=CARTESIAN_POINT('',(-15.,-16.5,9.11604597633658));
#424=CARTESIAN_POINT('',(15.,-0.431021828349518,13.9367394278317));
#425=CARTESIAN_POINT('',(15.,16.5,9.11604597633655));
#426=CARTESIAN_POINT('',(15.,15.4310218283495,9.4367394278317));
#427=CARTESIAN_POINT('',(-16.5,15.,-1.5));
#428=CARTESIAN_POINT('',(-16.5,16.5,-1.5));
#429=CARTESIAN_POINT('',(-16.5,-16.5,-1.5));
#430=CARTESIAN_POINT('',(-16.5,-16.5,8.));
#431=CARTESIAN_POINT('',(-16.5,16.5,8.));
#432=CARTESIAN_POINT('',(-16.5,15.,8.));
#433=CARTESIAN_POINT('',(-15.,-16.5,-1.5));
#434=CARTESIAN_POINT('',(16.5,-16.5,-1.5));
#435=CARTESIAN_POINT('',(16.5,-16.5,8.));
#436=CARTESIAN_POINT('',(-15.,-16.5,8.));
#437=CARTESIAN_POINT('',(16.5,-15.,-1.5));
#438=CARTESIAN_POINT('',(16.5,16.5,-1.5));
#439=CARTESIAN_POINT('',(16.5,16.5,8.));
#440=CARTESIAN_POINT('',(16.5,-15.,8.));
#441=CARTESIAN_POINT('',(15.,16.5,-1.5));
#442=CARTESIAN_POINT('',(15.,16.5,8.));
#443=CARTESIAN_POINT('',(0.,0.,-1.5));
#444=MECHANICAL_DESIGN_GEOMETRIC_PRESENTATION_REPRESENTATION('',(#32),#445);
#445=(
GEOMETRIC_REPRESENTATION_CONTEXT(3)
GLOBAL_UNCERTAINTY_ASSIGNED_CONTEXT((#446))
GLOBAL_UNIT_ASSIGNED_CONTEXT((#452,#448,#447))
REPRESENTATION_CONTEXT('Pyramidenkappen_X128','TOP_LEVEL_ASSEMBLY_PART')
);
#446=UNCERTAINTY_MEASURE_WITH_UNIT(LENGTH_MEASURE(2.E-5),#452,
'DISTANCE_ACCURACY_VALUE','Maximum Tolerance applied to model');
#447=(
NAMED_UNIT(*)
SI_UNIT($,.STERADIAN.)
SOLID_ANGLE_UNIT()
);
#448=(
CONVERSION_BASED_UNIT('DEGREE',#450)
NAMED_UNIT(#449)
PLANE_ANGLE_UNIT()
);
#449=DIMENSIONAL_EXPONENTS(0.,0.,0.,0.,0.,0.,0.);
#450=PLANE_ANGLE_MEASURE_WITH_UNIT(PLANE_ANGLE_MEASURE(0.0174532925),#451);
#451=(
NAMED_UNIT(*)
PLANE_ANGLE_UNIT()
SI_UNIT($,.RADIAN.)
);
#452=(
LENGTH_UNIT()
NAMED_UNIT(*)
SI_UNIT(.MILLI.,.METRE.)
);
ENDSEC;
END-ISO-10303-21;
