ISO-10303-21;
HEADER;
/* Generated by software containing ST-Developer
 * from STEP Tools, Inc. (www.steptools.com) 
 */
/* OPTION: using custom schema-name function */

FILE_DESCRIPTION(
/* description */ (''),
/* implementation_level */ '2;1');

FILE_NAME(
/* name */ 'Endkappen_X129.stp',
/* time_stamp */ '2017-06-15T09:40:42+02:00',
/* author */ (''),
/* organization */ (''),
/* preprocessor_version */ 'ST-DEVELOPER v16',
/* originating_system */ 'SIEMENS PLM Software NX 11.0',
/* authorisation */ '');

FILE_SCHEMA (('AUTOMOTIVE_DESIGN { 1 0 10303 214 3 1 1 1 }'));
ENDSEC;

DATA;
#10=PROPERTY_DEFINITION_REPRESENTATION(#14,#12);
#11=PROPERTY_DEFINITION_REPRESENTATION(#15,#13);
#12=REPRESENTATION('',(#16),#237);
#13=REPRESENTATION('',(#17),#237);
#14=PROPERTY_DEFINITION('pmi validation property','',#21);
#15=PROPERTY_DEFINITION('pmi validation property','',#21);
#16=VALUE_REPRESENTATION_ITEM('number of annotations',COUNT_MEASURE(0.));
#17=VALUE_REPRESENTATION_ITEM('number of views',COUNT_MEASURE(0.));
#18=SHAPE_REPRESENTATION_RELATIONSHIP('None',
'relationship between Goge1D3CD327kvjb-None and Goge1D3CD327kvjb-None',
#30,#19);
#19=ADVANCED_BREP_SHAPE_REPRESENTATION('Goge1D3CD327kvjb-None',(#40),#237);
#20=SHAPE_DEFINITION_REPRESENTATION(#21,#30);
#21=PRODUCT_DEFINITION_SHAPE('','',#22);
#22=PRODUCT_DEFINITION(' ','',#24,#23);
#23=PRODUCT_DEFINITION_CONTEXT('part definition',#29,'design');
#24=PRODUCT_DEFINITION_FORMATION_WITH_SPECIFIED_SOURCE(' ',' ',#26,
 .NOT_KNOWN.);
#25=PRODUCT_RELATED_PRODUCT_CATEGORY('part','',(#26));
#26=PRODUCT('Goge1D3CD327kvjb','Goge1D3CD327kvjb',' ',(#27));
#27=PRODUCT_CONTEXT(' ',#29,'mechanical');
#28=APPLICATION_PROTOCOL_DEFINITION('international standard',
'automotive_design',2010,#29);
#29=APPLICATION_CONTEXT(
'core data for automotive mechanical design processes');
#30=SHAPE_REPRESENTATION('Goge1D3CD327kvjb-None',(#146),#237);
#31=PRESENTATION_LAYER_ASSIGNMENT('1','Layer 1',(#40));
#32=STYLED_ITEM('',(#33),#40);
#33=PRESENTATION_STYLE_ASSIGNMENT((#34));
#34=SURFACE_STYLE_USAGE(.BOTH.,#35);
#35=SURFACE_SIDE_STYLE('',(#36));
#36=SURFACE_STYLE_FILL_AREA(#37);
#37=FILL_AREA_STYLE('',(#38));
#38=FILL_AREA_STYLE_COLOUR('',#39);
#39=COLOUR_RGB('Medium Steel',0.596063172350652,0.666666666666667,0.686259250782025);
#40=MANIFOLD_SOLID_BREP('',#41);
#41=CLOSED_SHELL('',(#69,#70,#71,#72,#73,#74,#75,#76,#77,#78));
#42=TOROIDAL_SURFACE('',#158,8.,0.524346766754184);
#43=TOROIDAL_SURFACE('',#162,8.00000000000002,0.499999999999998);
#44=CYLINDRICAL_SURFACE('',#152,6.10000000000001);
#45=CYLINDRICAL_SURFACE('',#156,8.);
#46=CYLINDRICAL_SURFACE('',#160,8.);
#47=CYLINDRICAL_SURFACE('',#164,8.00000000000004);
#48=CONICAL_SURFACE('',#150,0.,65.0807639666311);
#49=CONICAL_SURFACE('',#165,8.00000000000004,45.);
#50=VERTEX_LOOP('',#120);
#51=FACE_BOUND('',#83,.T.);
#52=FACE_BOUND('',#50,.T.);
#53=FACE_BOUND('',#84,.T.);
#54=FACE_BOUND('',#85,.T.);
#55=FACE_BOUND('',#86,.T.);
#56=FACE_BOUND('',#87,.T.);
#57=FACE_BOUND('',#88,.T.);
#58=FACE_BOUND('',#89,.T.);
#59=FACE_BOUND('',#90,.T.);
#60=FACE_BOUND('',#91,.T.);
#61=FACE_BOUND('',#92,.T.);
#62=FACE_BOUND('',#93,.T.);
#63=FACE_BOUND('',#94,.T.);
#64=FACE_BOUND('',#95,.T.);
#65=FACE_BOUND('',#96,.T.);
#66=FACE_BOUND('',#97,.T.);
#67=FACE_BOUND('',#98,.T.);
#68=FACE_BOUND('',#99,.T.);
#69=ADVANCED_FACE('',(#81),#79,.F.);
#70=ADVANCED_FACE('',(#51,#52),#48,.F.);
#71=ADVANCED_FACE('',(#53,#54),#44,.F.);
#72=ADVANCED_FACE('',(#55,#56),#80,.F.);
#73=ADVANCED_FACE('',(#57,#58),#45,.T.);
#74=ADVANCED_FACE('',(#59,#60),#42,.F.);
#75=ADVANCED_FACE('',(#61,#62),#46,.T.);
#76=ADVANCED_FACE('',(#63,#64),#43,.F.);
#77=ADVANCED_FACE('',(#65,#66),#47,.T.);
#78=ADVANCED_FACE('',(#67,#68),#49,.T.);
#79=PLANE('',#148);
#80=PLANE('',#154);
#81=FACE_OUTER_BOUND('',#82,.T.);
#82=EDGE_LOOP('',(#100));
#83=EDGE_LOOP('',(#101));
#84=EDGE_LOOP('',(#102));
#85=EDGE_LOOP('',(#103));
#86=EDGE_LOOP('',(#104));
#87=EDGE_LOOP('',(#105));
#88=EDGE_LOOP('',(#106));
#89=EDGE_LOOP('',(#107));
#90=EDGE_LOOP('',(#108));
#91=EDGE_LOOP('',(#109));
#92=EDGE_LOOP('',(#110));
#93=EDGE_LOOP('',(#111));
#94=EDGE_LOOP('',(#112));
#95=EDGE_LOOP('',(#113));
#96=EDGE_LOOP('',(#114));
#97=EDGE_LOOP('',(#115));
#98=EDGE_LOOP('',(#116));
#99=EDGE_LOOP('',(#117));
#100=ORIENTED_EDGE('',*,*,#128,.T.);
#101=ORIENTED_EDGE('',*,*,#129,.F.);
#102=ORIENTED_EDGE('',*,*,#130,.F.);
#103=ORIENTED_EDGE('',*,*,#129,.T.);
#104=ORIENTED_EDGE('',*,*,#131,.F.);
#105=ORIENTED_EDGE('',*,*,#130,.T.);
#106=ORIENTED_EDGE('',*,*,#132,.F.);
#107=ORIENTED_EDGE('',*,*,#131,.T.);
#108=ORIENTED_EDGE('',*,*,#133,.F.);
#109=ORIENTED_EDGE('',*,*,#132,.T.);
#110=ORIENTED_EDGE('',*,*,#134,.F.);
#111=ORIENTED_EDGE('',*,*,#133,.T.);
#112=ORIENTED_EDGE('',*,*,#135,.F.);
#113=ORIENTED_EDGE('',*,*,#134,.T.);
#114=ORIENTED_EDGE('',*,*,#136,.F.);
#115=ORIENTED_EDGE('',*,*,#135,.T.);
#116=ORIENTED_EDGE('',*,*,#128,.F.);
#117=ORIENTED_EDGE('',*,*,#136,.T.);
#118=VERTEX_POINT('',#208);
#119=VERTEX_POINT('',#211);
#120=VERTEX_POINT('',#212);
#121=VERTEX_POINT('',#215);
#122=VERTEX_POINT('',#218);
#123=VERTEX_POINT('',#221);
#124=VERTEX_POINT('',#224);
#125=VERTEX_POINT('',#227);
#126=VERTEX_POINT('',#230);
#127=VERTEX_POINT('',#233);
#128=EDGE_CURVE('',#118,#118,#137,.T.);
#129=EDGE_CURVE('',#119,#119,#138,.T.);
#130=EDGE_CURVE('',#121,#121,#139,.T.);
#131=EDGE_CURVE('',#122,#122,#140,.T.);
#132=EDGE_CURVE('',#123,#123,#141,.T.);
#133=EDGE_CURVE('',#124,#124,#142,.T.);
#134=EDGE_CURVE('',#125,#125,#143,.T.);
#135=EDGE_CURVE('',#126,#126,#144,.T.);
#136=EDGE_CURVE('',#127,#127,#145,.T.);
#137=CIRCLE('',#147,6.50000000000005);
#138=CIRCLE('',#149,6.10000000000003);
#139=CIRCLE('',#151,6.1);
#140=CIRCLE('',#153,8.);
#141=CIRCLE('',#155,8.);
#142=CIRCLE('',#157,8.);
#143=CIRCLE('',#159,8.);
#144=CIRCLE('',#161,8.00000000000003);
#145=CIRCLE('',#163,8.00000000000004);
#146=AXIS2_PLACEMENT_3D('',#206,#166,#167);
#147=AXIS2_PLACEMENT_3D('',#207,#168,#169);
#148=AXIS2_PLACEMENT_3D('',#209,#170,#171);
#149=AXIS2_PLACEMENT_3D('',#210,#172,#173);
#150=AXIS2_PLACEMENT_3D('',#213,#174,#175);
#151=AXIS2_PLACEMENT_3D('',#214,#176,#177);
#152=AXIS2_PLACEMENT_3D('',#216,#178,#179);
#153=AXIS2_PLACEMENT_3D('',#217,#180,#181);
#154=AXIS2_PLACEMENT_3D('',#219,#182,#183);
#155=AXIS2_PLACEMENT_3D('',#220,#184,#185);
#156=AXIS2_PLACEMENT_3D('',#222,#186,#187);
#157=AXIS2_PLACEMENT_3D('',#223,#188,#189);
#158=AXIS2_PLACEMENT_3D('',#225,#190,#191);
#159=AXIS2_PLACEMENT_3D('',#226,#192,#193);
#160=AXIS2_PLACEMENT_3D('',#228,#194,#195);
#161=AXIS2_PLACEMENT_3D('',#229,#196,#197);
#162=AXIS2_PLACEMENT_3D('',#231,#198,#199);
#163=AXIS2_PLACEMENT_3D('',#232,#200,#201);
#164=AXIS2_PLACEMENT_3D('',#234,#202,#203);
#165=AXIS2_PLACEMENT_3D('',#235,#204,#205);
#166=DIRECTION('',(0.,0.,1.));
#167=DIRECTION('',(1.,0.,0.));
#168=DIRECTION('',(-1.,0.,0.));
#169=DIRECTION('',(0.,0.,1.));
#170=DIRECTION('',(1.,0.,0.));
#171=DIRECTION('',(0.,0.,-1.));
#172=DIRECTION('',(-1.,0.,0.));
#173=DIRECTION('',(0.,0.,1.));
#174=DIRECTION('',(1.,0.,0.));
#175=DIRECTION('',(-1.37009770994845E-17,0.,-1.));
#176=DIRECTION('',(-1.,0.,0.));
#177=DIRECTION('',(0.,0.,1.));
#178=DIRECTION('',(-1.,0.,0.));
#179=DIRECTION('',(0.,0.,1.));
#180=DIRECTION('',(-1.,0.,0.));
#181=DIRECTION('',(0.,0.,1.));
#182=DIRECTION('',(-1.,0.,0.));
#183=DIRECTION('',(0.,0.,1.));
#184=DIRECTION('',(-1.,0.,0.));
#185=DIRECTION('',(0.,0.,1.));
#186=DIRECTION('',(-1.,0.,0.));
#187=DIRECTION('',(0.,0.,1.));
#188=DIRECTION('',(-1.,0.,0.));
#189=DIRECTION('',(0.,0.,1.));
#190=DIRECTION('',(-1.,0.,0.));
#191=DIRECTION('',(0.,0.,1.));
#192=DIRECTION('',(-1.,0.,0.));
#193=DIRECTION('',(0.,0.,1.));
#194=DIRECTION('',(-1.,0.,0.));
#195=DIRECTION('',(0.,0.,1.));
#196=DIRECTION('',(-1.,0.,0.));
#197=DIRECTION('',(0.,0.,1.));
#198=DIRECTION('',(-1.,0.,0.));
#199=DIRECTION('',(0.,0.,1.));
#200=DIRECTION('',(-1.,0.,0.));
#201=DIRECTION('',(0.,0.,1.));
#202=DIRECTION('',(-1.,0.,0.));
#203=DIRECTION('',(0.,0.,1.));
#204=DIRECTION('',(1.,0.,0.));
#205=DIRECTION('',(4.13029399042097E-17,0.,-1.));
#206=CARTESIAN_POINT('',(0.,0.,0.));
#207=CARTESIAN_POINT('',(-20.,0.,0.));
#208=CARTESIAN_POINT('',(-20.,0.,6.50000000000005));
#209=CARTESIAN_POINT('',(-20.,0.,6.50000000000005));
#210=CARTESIAN_POINT('',(-12.,0.,0.));
#211=CARTESIAN_POINT('',(-12.,0.,6.10000000000003));
#212=CARTESIAN_POINT('',(-14.8340153501748,0.,0.));
#213=CARTESIAN_POINT('',(-14.8340153501748,0.,0.));
#214=CARTESIAN_POINT('',(0.,0.,0.));
#215=CARTESIAN_POINT('',(0.,0.,6.1));
#216=CARTESIAN_POINT('',(0.,0.,0.));
#217=CARTESIAN_POINT('',(4.04257239845944E-15,0.,0.));
#218=CARTESIAN_POINT('',(4.04257239845944E-15,0.,8.));
#219=CARTESIAN_POINT('',(2.02128619922972E-15,0.,6.1));
#220=CARTESIAN_POINT('',(-6.2,0.,0.));
#221=CARTESIAN_POINT('',(-6.2,0.,8.));
#222=CARTESIAN_POINT('',(0.,0.,0.));
#223=CARTESIAN_POINT('',(-7.24869353350837,0.,0.));
#224=CARTESIAN_POINT('',(-7.24869353350837,0.,8.));
#225=CARTESIAN_POINT('',(-6.72434676675418,0.,0.));
#226=CARTESIAN_POINT('',(-10.2486935335084,0.,0.));
#227=CARTESIAN_POINT('',(-10.2486935335084,0.,8.));
#228=CARTESIAN_POINT('',(0.,0.,0.));
#229=CARTESIAN_POINT('',(-11.2486935335084,0.,0.));
#230=CARTESIAN_POINT('',(-11.2486935335084,0.,8.00000000000003));
#231=CARTESIAN_POINT('',(-10.7486935335084,0.,0.));
#232=CARTESIAN_POINT('',(-18.5,0.,0.));
#233=CARTESIAN_POINT('',(-18.5,0.,8.00000000000004));
#234=CARTESIAN_POINT('',(0.,0.,0.));
#235=CARTESIAN_POINT('',(-18.5,0.,0.));
#236=MECHANICAL_DESIGN_GEOMETRIC_PRESENTATION_REPRESENTATION('',(#32),#237);
#237=(
GEOMETRIC_REPRESENTATION_CONTEXT(3)
GLOBAL_UNCERTAINTY_ASSIGNED_CONTEXT((#238))
GLOBAL_UNIT_ASSIGNED_CONTEXT((#244,#240,#239))
REPRESENTATION_CONTEXT('Endkappen_X129','TOP_LEVEL_ASSEMBLY_PART')
);
#238=UNCERTAINTY_MEASURE_WITH_UNIT(LENGTH_MEASURE(2.E-5),#244,
'DISTANCE_ACCURACY_VALUE','Maximum Tolerance applied to model');
#239=(
NAMED_UNIT(*)
SI_UNIT($,.STERADIAN.)
SOLID_ANGLE_UNIT()
);
#240=(
CONVERSION_BASED_UNIT('DEGREE',#242)
NAMED_UNIT(#241)
PLANE_ANGLE_UNIT()
);
#241=DIMENSIONAL_EXPONENTS(0.,0.,0.,0.,0.,0.,0.);
#242=PLANE_ANGLE_MEASURE_WITH_UNIT(PLANE_ANGLE_MEASURE(0.0174532925),#243);
#243=(
NAMED_UNIT(*)
PLANE_ANGLE_UNIT()
SI_UNIT($,.RADIAN.)
);
#244=(
LENGTH_UNIT()
NAMED_UNIT(*)
SI_UNIT(.MILLI.,.METRE.)
);
ENDSEC;
END-ISO-10303-21;
