ISO-10303-21;
HEADER;
/* Generated by software containing ST-Developer
 * from STEP Tools, Inc. (www.steptools.com) 
 */
/* OPTION: using custom schema-name function */

FILE_DESCRIPTION(
/* description */ (''),
/* implementation_level */ '2;1');

FILE_NAME(
/* name */ 'Kugel_X146.stp',
/* time_stamp */ '2017-07-25T10:40:29+02:00',
/* author */ (''),
/* organization */ (''),
/* preprocessor_version */ 'ST-DEVELOPER v16',
/* originating_system */ 'SIEMENS PLM Software NX 11.0',
/* authorisation */ '');

FILE_SCHEMA (('AUTOMOTIVE_DESIGN { 1 0 10303 214 3 1 1 1 }'));
ENDSEC;

DATA;
#10=PROPERTY_DEFINITION_REPRESENTATION(#14,#12);
#11=PROPERTY_DEFINITION_REPRESENTATION(#15,#13);
#12=REPRESENTATION('',(#16),#97);
#13=REPRESENTATION('',(#17),#97);
#14=PROPERTY_DEFINITION('pmi validation property','',#21);
#15=PROPERTY_DEFINITION('pmi validation property','',#21);
#16=VALUE_REPRESENTATION_ITEM('number of annotations',COUNT_MEASURE(0.));
#17=VALUE_REPRESENTATION_ITEM('number of views',COUNT_MEASURE(0.));
#18=SHAPE_REPRESENTATION_RELATIONSHIP('None',
'relationship between Goge113816A0n1c7-None and Goge113816A0n1c7-None',
#30,#19);
#19=ADVANCED_BREP_SHAPE_REPRESENTATION('Goge113816A0n1c7-None',(#40),#97);
#20=SHAPE_DEFINITION_REPRESENTATION(#21,#30);
#21=PRODUCT_DEFINITION_SHAPE('','',#22);
#22=PRODUCT_DEFINITION(' ','',#24,#23);
#23=PRODUCT_DEFINITION_CONTEXT('part definition',#29,'design');
#24=PRODUCT_DEFINITION_FORMATION_WITH_SPECIFIED_SOURCE(' ',' ',#26,
 .NOT_KNOWN.);
#25=PRODUCT_RELATED_PRODUCT_CATEGORY('part','',(#26));
#26=PRODUCT('Goge113816A0n1c7','Goge113816A0n1c7',' ',(#27));
#27=PRODUCT_CONTEXT(' ',#29,'mechanical');
#28=APPLICATION_PROTOCOL_DEFINITION('international standard',
'automotive_design',2010,#29);
#29=APPLICATION_CONTEXT(
'core data for automotive mechanical design processes');
#30=SHAPE_REPRESENTATION('Goge113816A0n1c7-None',(#69),#97);
#31=PRESENTATION_LAYER_ASSIGNMENT('1','Layer 1',(#40));
#32=STYLED_ITEM('',(#33),#40);
#33=PRESENTATION_STYLE_ASSIGNMENT((#34));
#34=SURFACE_STYLE_USAGE(.BOTH.,#35);
#35=SURFACE_SIDE_STYLE('',(#36));
#36=SURFACE_STYLE_FILL_AREA(#37);
#37=FILL_AREA_STYLE('',(#38));
#38=FILL_AREA_STYLE_COLOUR('',#39);
#39=COLOUR_RGB('Medium Steel',0.596063172350652,0.666666666666667,0.686259250782025);
#40=MANIFOLD_SOLID_BREP('',#41);
#41=CLOSED_SHELL('',(#49,#50,#51));
#42=CYLINDRICAL_SURFACE('',#74,6.1);
#43=CONICAL_SURFACE('',#73,6.1,59.);
#44=VERTEX_LOOP('',#64);
#45=FACE_BOUND('',#55,.T.);
#46=FACE_BOUND('',#44,.T.);
#47=FACE_BOUND('',#56,.T.);
#48=FACE_BOUND('',#57,.T.);
#49=ADVANCED_FACE('',(#53),#52,.T.);
#50=ADVANCED_FACE('',(#45,#46),#43,.F.);
#51=ADVANCED_FACE('',(#47,#48),#42,.F.);
#52=SPHERICAL_SURFACE('',#71,10.);
#53=FACE_OUTER_BOUND('',#54,.T.);
#54=EDGE_LOOP('',(#58));
#55=EDGE_LOOP('',(#59));
#56=EDGE_LOOP('',(#60));
#57=EDGE_LOOP('',(#61));
#58=ORIENTED_EDGE('',*,*,#65,.F.);
#59=ORIENTED_EDGE('',*,*,#66,.T.);
#60=ORIENTED_EDGE('',*,*,#65,.T.);
#61=ORIENTED_EDGE('',*,*,#66,.F.);
#62=VERTEX_POINT('',#89);
#63=VERTEX_POINT('',#92);
#64=VERTEX_POINT('',#93);
#65=EDGE_CURVE('',#62,#62,#67,.T.);
#66=EDGE_CURVE('',#63,#63,#68,.T.);
#67=CIRCLE('',#70,6.1);
#68=CIRCLE('',#72,6.1);
#69=AXIS2_PLACEMENT_3D('',#87,#75,#76);
#70=AXIS2_PLACEMENT_3D('',#88,#77,#78);
#71=AXIS2_PLACEMENT_3D('',#90,#79,#80);
#72=AXIS2_PLACEMENT_3D('',#91,#81,#82);
#73=AXIS2_PLACEMENT_3D('',#94,#83,#84);
#74=AXIS2_PLACEMENT_3D('',#95,#85,#86);
#75=DIRECTION('',(0.,0.,1.));
#76=DIRECTION('',(1.,0.,0.));
#77=DIRECTION('',(0.,0.,1.));
#78=DIRECTION('',(-1.,0.,0.));
#79=DIRECTION('',(6.12323399573677E-17,0.,1.));
#80=DIRECTION('',(1.,0.,0.));
#81=DIRECTION('',(0.,0.,1.));
#82=DIRECTION('',(-1.,0.,0.));
#83=DIRECTION('',(0.,0.,1.));
#84=DIRECTION('',(1.,0.,2.0770411685562E-18));
#85=DIRECTION('',(0.,0.,-1.));
#86=DIRECTION('',(-1.,0.,0.));
#87=CARTESIAN_POINT('',(0.,0.,0.));
#88=CARTESIAN_POINT('',(0.,0.,7.92401413426301));
#89=CARTESIAN_POINT('',(-6.1,0.,7.92401413426301));
#90=CARTESIAN_POINT('',(0.,0.,0.));
#91=CARTESIAN_POINT('',(0.,0.,2.));
#92=CARTESIAN_POINT('',(-6.1,0.,2.));
#93=CARTESIAN_POINT('',(0.,0.,-1.66524977606812));
#94=CARTESIAN_POINT('',(0.,0.,2.));
#95=CARTESIAN_POINT('',(0.,0.,11.));
#96=MECHANICAL_DESIGN_GEOMETRIC_PRESENTATION_REPRESENTATION('',(#32),#97);
#97=(
GEOMETRIC_REPRESENTATION_CONTEXT(3)
GLOBAL_UNCERTAINTY_ASSIGNED_CONTEXT((#98))
GLOBAL_UNIT_ASSIGNED_CONTEXT((#104,#100,#99))
REPRESENTATION_CONTEXT('Kugel_X146','TOP_LEVEL_ASSEMBLY_PART')
);
#98=UNCERTAINTY_MEASURE_WITH_UNIT(LENGTH_MEASURE(2.E-5),#104,
'DISTANCE_ACCURACY_VALUE','Maximum Tolerance applied to model');
#99=(
NAMED_UNIT(*)
SI_UNIT($,.STERADIAN.)
SOLID_ANGLE_UNIT()
);
#100=(
CONVERSION_BASED_UNIT('DEGREE',#102)
NAMED_UNIT(#101)
PLANE_ANGLE_UNIT()
);
#101=DIMENSIONAL_EXPONENTS(0.,0.,0.,0.,0.,0.,0.);
#102=PLANE_ANGLE_MEASURE_WITH_UNIT(PLANE_ANGLE_MEASURE(0.0174532925),#103);
#103=(
NAMED_UNIT(*)
PLANE_ANGLE_UNIT()
SI_UNIT($,.RADIAN.)
);
#104=(
LENGTH_UNIT()
NAMED_UNIT(*)
SI_UNIT(.MILLI.,.METRE.)
);
ENDSEC;
END-ISO-10303-21;
