ISO-10303-21;
HEADER;
/* Generated by software containing ST-Developer
 * from STEP Tools, Inc. (www.steptools.com) 
 */
/* OPTION: using custom schema-name function */

FILE_DESCRIPTION(
/* description */ (''),
/* implementation_level */ '2;1');

FILE_NAME(
/* name */ 'Kugel_X147.stp',
/* time_stamp */ '2017-07-25T10:41:09+02:00',
/* author */ (''),
/* organization */ (''),
/* preprocessor_version */ 'ST-DEVELOPER v16',
/* originating_system */ 'SIEMENS PLM Software NX 11.0',
/* authorisation */ '');

FILE_SCHEMA (('AUTOMOTIVE_DESIGN { 1 0 10303 214 3 1 1 1 }'));
ENDSEC;

DATA;
#10=PROPERTY_DEFINITION_REPRESENTATION(#14,#12);
#11=PROPERTY_DEFINITION_REPRESENTATION(#15,#13);
#12=REPRESENTATION('',(#16),#87);
#13=REPRESENTATION('',(#17),#87);
#14=PROPERTY_DEFINITION('pmi validation property','',#21);
#15=PROPERTY_DEFINITION('pmi validation property','',#21);
#16=VALUE_REPRESENTATION_ITEM('number of annotations',COUNT_MEASURE(0.));
#17=VALUE_REPRESENTATION_ITEM('number of views',COUNT_MEASURE(0.));
#18=SHAPE_REPRESENTATION_RELATIONSHIP('None',
'relationship between Goge113816A0n1ch-None and Goge113816A0n1ch-None',
#30,#19);
#19=ADVANCED_BREP_SHAPE_REPRESENTATION('Goge113816A0n1ch-None',(#40),#87);
#20=SHAPE_DEFINITION_REPRESENTATION(#21,#30);
#21=PRODUCT_DEFINITION_SHAPE('','',#22);
#22=PRODUCT_DEFINITION(' ','',#24,#23);
#23=PRODUCT_DEFINITION_CONTEXT('part definition',#29,'design');
#24=PRODUCT_DEFINITION_FORMATION_WITH_SPECIFIED_SOURCE(' ',' ',#26,
 .NOT_KNOWN.);
#25=PRODUCT_RELATED_PRODUCT_CATEGORY('part','',(#26));
#26=PRODUCT('Goge113816A0n1ch','Goge113816A0n1ch',' ',(#27));
#27=PRODUCT_CONTEXT(' ',#29,'mechanical');
#28=APPLICATION_PROTOCOL_DEFINITION('international standard',
'automotive_design',2010,#29);
#29=APPLICATION_CONTEXT(
'core data for automotive mechanical design processes');
#30=SHAPE_REPRESENTATION('Goge113816A0n1ch-None',(#64),#87);
#31=PRESENTATION_LAYER_ASSIGNMENT('1','Layer 1',(#40));
#32=STYLED_ITEM('',(#33),#40);
#33=PRESENTATION_STYLE_ASSIGNMENT((#34));
#34=SURFACE_STYLE_USAGE(.BOTH.,#35);
#35=SURFACE_SIDE_STYLE('',(#36));
#36=SURFACE_STYLE_FILL_AREA(#37);
#37=FILL_AREA_STYLE('',(#38));
#38=FILL_AREA_STYLE_COLOUR('',#39);
#39=COLOUR_RGB('Medium Steel',0.596063172350652,0.666666666666667,0.686259250782025);
#40=MANIFOLD_SOLID_BREP('',#41);
#41=CLOSED_SHELL('',(#43,#44));
#42=CYLINDRICAL_SURFACE('',#68,6.1);
#43=ADVANCED_FACE('',(#46,#47),#45,.T.);
#44=ADVANCED_FACE('',(#48,#49),#42,.F.);
#45=SPHERICAL_SURFACE('',#67,10.);
#46=FACE_BOUND('',#50,.T.);
#47=FACE_BOUND('',#51,.T.);
#48=FACE_BOUND('',#52,.T.);
#49=FACE_BOUND('',#53,.T.);
#50=EDGE_LOOP('',(#54));
#51=EDGE_LOOP('',(#55));
#52=EDGE_LOOP('',(#56));
#53=EDGE_LOOP('',(#57));
#54=ORIENTED_EDGE('',*,*,#60,.F.);
#55=ORIENTED_EDGE('',*,*,#61,.F.);
#56=ORIENTED_EDGE('',*,*,#60,.T.);
#57=ORIENTED_EDGE('',*,*,#61,.T.);
#58=VERTEX_POINT('',#81);
#59=VERTEX_POINT('',#83);
#60=EDGE_CURVE('',#58,#58,#62,.T.);
#61=EDGE_CURVE('',#59,#59,#63,.T.);
#62=CIRCLE('',#65,6.1);
#63=CIRCLE('',#66,6.1);
#64=AXIS2_PLACEMENT_3D('',#79,#69,#70);
#65=AXIS2_PLACEMENT_3D('',#80,#71,#72);
#66=AXIS2_PLACEMENT_3D('',#82,#73,#74);
#67=AXIS2_PLACEMENT_3D('',#84,#75,#76);
#68=AXIS2_PLACEMENT_3D('',#85,#77,#78);
#69=DIRECTION('',(0.,0.,1.));
#70=DIRECTION('',(1.,0.,0.));
#71=DIRECTION('',(0.,0.,-1.));
#72=DIRECTION('',(1.,0.,0.));
#73=DIRECTION('',(0.,0.,1.));
#74=DIRECTION('',(-1.,0.,0.));
#75=DIRECTION('',(6.12323399573677E-17,0.,1.));
#76=DIRECTION('',(1.,0.,0.));
#77=DIRECTION('',(0.,0.,-1.));
#78=DIRECTION('',(-1.,0.,0.));
#79=CARTESIAN_POINT('',(0.,0.,0.));
#80=CARTESIAN_POINT('',(0.,0.,-7.92401413426301));
#81=CARTESIAN_POINT('',(6.1,0.,-7.92401413426301));
#82=CARTESIAN_POINT('',(0.,0.,7.92401413426301));
#83=CARTESIAN_POINT('',(-6.1,0.,7.92401413426301));
#84=CARTESIAN_POINT('',(0.,0.,0.));
#85=CARTESIAN_POINT('',(0.,0.,11.));
#86=MECHANICAL_DESIGN_GEOMETRIC_PRESENTATION_REPRESENTATION('',(#32),#87);
#87=(
GEOMETRIC_REPRESENTATION_CONTEXT(3)
GLOBAL_UNCERTAINTY_ASSIGNED_CONTEXT((#88))
GLOBAL_UNIT_ASSIGNED_CONTEXT((#94,#90,#89))
REPRESENTATION_CONTEXT('Kugel_X147','TOP_LEVEL_ASSEMBLY_PART')
);
#88=UNCERTAINTY_MEASURE_WITH_UNIT(LENGTH_MEASURE(2.E-5),#94,
'DISTANCE_ACCURACY_VALUE','Maximum Tolerance applied to model');
#89=(
NAMED_UNIT(*)
SI_UNIT($,.STERADIAN.)
SOLID_ANGLE_UNIT()
);
#90=(
CONVERSION_BASED_UNIT('DEGREE',#92)
NAMED_UNIT(#91)
PLANE_ANGLE_UNIT()
);
#91=DIMENSIONAL_EXPONENTS(0.,0.,0.,0.,0.,0.,0.);
#92=PLANE_ANGLE_MEASURE_WITH_UNIT(PLANE_ANGLE_MEASURE(0.0174532925),#93);
#93=(
NAMED_UNIT(*)
PLANE_ANGLE_UNIT()
SI_UNIT($,.RADIAN.)
);
#94=(
LENGTH_UNIT()
NAMED_UNIT(*)
SI_UNIT(.MILLI.,.METRE.)
);
ENDSEC;
END-ISO-10303-21;
