ISO-10303-21;
HEADER;
/* Generated by software containing ST-Developer
 * from STEP Tools, Inc. (www.steptools.com) 
 */
/* OPTION: using custom schema-name function */

FILE_DESCRIPTION(
/* description */ (''),
/* implementation_level */ '2;1');

FILE_NAME(
/* name */ 'Rohrabschlusskugel_X143.stp',
/* time_stamp */ '2017-05-31T10:30:41+02:00',
/* author */ (''),
/* organization */ (''),
/* preprocessor_version */ 'ST-DEVELOPER v16',
/* originating_system */ 'SIEMENS PLM Software NX 11.0',
/* authorisation */ '');

FILE_SCHEMA (('AUTOMOTIVE_DESIGN { 1 0 10303 214 3 1 1 1 }'));
ENDSEC;

DATA;
#10=PROPERTY_DEFINITION_REPRESENTATION(#14,#12);
#11=PROPERTY_DEFINITION_REPRESENTATION(#15,#13);
#12=REPRESENTATION('',(#16),#153);
#13=REPRESENTATION('',(#17),#153);
#14=PROPERTY_DEFINITION('pmi validation property','',#21);
#15=PROPERTY_DEFINITION('pmi validation property','',#21);
#16=VALUE_REPRESENTATION_ITEM('number of annotations',COUNT_MEASURE(0.));
#17=VALUE_REPRESENTATION_ITEM('number of views',COUNT_MEASURE(0.));
#18=SHAPE_REPRESENTATION_RELATIONSHIP('None',
'relationship between Goge2404B7CEt5tf-None and Goge2404B7CEt5tf-None',
#30,#19);
#19=ADVANCED_BREP_SHAPE_REPRESENTATION('Goge2404B7CEt5tf-None',(#40),#153);
#20=SHAPE_DEFINITION_REPRESENTATION(#21,#30);
#21=PRODUCT_DEFINITION_SHAPE('','',#22);
#22=PRODUCT_DEFINITION(' ','',#24,#23);
#23=PRODUCT_DEFINITION_CONTEXT('part definition',#29,'design');
#24=PRODUCT_DEFINITION_FORMATION_WITH_SPECIFIED_SOURCE(' ',' ',#26,
 .NOT_KNOWN.);
#25=PRODUCT_RELATED_PRODUCT_CATEGORY('part','',(#26));
#26=PRODUCT('Goge2404B7CEt5tf','Goge2404B7CEt5tf',' ',(#27));
#27=PRODUCT_CONTEXT(' ',#29,'mechanical');
#28=APPLICATION_PROTOCOL_DEFINITION('international standard',
'automotive_design',2010,#29);
#29=APPLICATION_CONTEXT(
'core data for automotive mechanical design processes');
#30=SHAPE_REPRESENTATION('Goge2404B7CEt5tf-None',(#99),#153);
#31=PRESENTATION_LAYER_ASSIGNMENT('1','Layer 1',(#40));
#32=STYLED_ITEM('',(#33),#40);
#33=PRESENTATION_STYLE_ASSIGNMENT((#34));
#34=SURFACE_STYLE_USAGE(.BOTH.,#35);
#35=SURFACE_SIDE_STYLE('',(#36));
#36=SURFACE_STYLE_FILL_AREA(#37);
#37=FILL_AREA_STYLE('',(#38));
#38=FILL_AREA_STYLE_COLOUR('',#39);
#39=COLOUR_RGB('Medium Steel',0.596063172350652,0.666666666666667,0.686259250782025);
#40=MANIFOLD_SOLID_BREP('',#41);
#41=CLOSED_SHELL('',(#48,#49,#50,#51,#52,#53));
#42=PLANE('',#110);
#43=TOROIDAL_SURFACE('',#107,17.8998990064595,1.04989900645951);
#44=SPHERICAL_SURFACE('',#103,21.5);
#45=SPHERICAL_SURFACE('',#105,23.5);
#46=FACE_OUTER_BOUND('',#66,.T.);
#47=FACE_OUTER_BOUND('',#67,.T.);
#48=ADVANCED_FACE('',(#56,#57),#54,.T.);
#49=ADVANCED_FACE('',(#46),#44,.F.);
#50=ADVANCED_FACE('',(#47),#45,.T.);
#51=ADVANCED_FACE('',(#58,#59),#43,.T.);
#52=ADVANCED_FACE('',(#60,#61),#55,.F.);
#53=ADVANCED_FACE('',(#62,#63),#42,.F.);
#54=CYLINDRICAL_SURFACE('',#102,18.85);
#55=CYLINDRICAL_SURFACE('',#109,16.85);
#56=FACE_BOUND('',#64,.T.);
#57=FACE_BOUND('',#65,.T.);
#58=FACE_BOUND('',#68,.T.);
#59=FACE_BOUND('',#69,.T.);
#60=FACE_BOUND('',#70,.T.);
#61=FACE_BOUND('',#71,.T.);
#62=FACE_BOUND('',#72,.T.);
#63=FACE_BOUND('',#73,.T.);
#64=EDGE_LOOP('',(#74));
#65=EDGE_LOOP('',(#75));
#66=EDGE_LOOP('',(#76));
#67=EDGE_LOOP('',(#77));
#68=EDGE_LOOP('',(#78));
#69=EDGE_LOOP('',(#79));
#70=EDGE_LOOP('',(#80));
#71=EDGE_LOOP('',(#81));
#72=EDGE_LOOP('',(#82));
#73=EDGE_LOOP('',(#83));
#74=ORIENTED_EDGE('',*,*,#89,.F.);
#75=ORIENTED_EDGE('',*,*,#90,.T.);
#76=ORIENTED_EDGE('',*,*,#89,.T.);
#77=ORIENTED_EDGE('',*,*,#91,.F.);
#78=ORIENTED_EDGE('',*,*,#92,.F.);
#79=ORIENTED_EDGE('',*,*,#91,.T.);
#80=ORIENTED_EDGE('',*,*,#93,.F.);
#81=ORIENTED_EDGE('',*,*,#92,.T.);
#82=ORIENTED_EDGE('',*,*,#90,.F.);
#83=ORIENTED_EDGE('',*,*,#93,.T.);
#84=VERTEX_POINT('',#137);
#85=VERTEX_POINT('',#139);
#86=VERTEX_POINT('',#143);
#87=VERTEX_POINT('',#146);
#88=VERTEX_POINT('',#149);
#89=EDGE_CURVE('',#84,#84,#94,.T.);
#90=EDGE_CURVE('',#85,#85,#95,.T.);
#91=EDGE_CURVE('',#86,#86,#96,.T.);
#92=EDGE_CURVE('',#87,#87,#97,.T.);
#93=EDGE_CURVE('',#88,#88,#98,.T.);
#94=CIRCLE('',#100,18.85);
#95=CIRCLE('',#101,18.85);
#96=CIRCLE('',#104,18.737003756634);
#97=CIRCLE('',#106,16.85);
#98=CIRCLE('',#108,16.85);
#99=AXIS2_PLACEMENT_3D('',#135,#111,#112);
#100=AXIS2_PLACEMENT_3D('',#136,#113,#114);
#101=AXIS2_PLACEMENT_3D('',#138,#115,#116);
#102=AXIS2_PLACEMENT_3D('',#140,#117,#118);
#103=AXIS2_PLACEMENT_3D('',#141,#119,#120);
#104=AXIS2_PLACEMENT_3D('',#142,#121,#122);
#105=AXIS2_PLACEMENT_3D('',#144,#123,#124);
#106=AXIS2_PLACEMENT_3D('',#145,#125,#126);
#107=AXIS2_PLACEMENT_3D('',#147,#127,#128);
#108=AXIS2_PLACEMENT_3D('',#148,#129,#130);
#109=AXIS2_PLACEMENT_3D('',#150,#131,#132);
#110=AXIS2_PLACEMENT_3D('',#151,#133,#134);
#111=DIRECTION('',(0.,0.,1.));
#112=DIRECTION('',(1.,0.,0.));
#113=DIRECTION('',(0.,0.,-1.));
#114=DIRECTION('',(-1.,0.,0.));
#115=DIRECTION('',(0.,0.,-1.));
#116=DIRECTION('',(-1.,0.,0.));
#117=DIRECTION('',(0.,0.,-1.));
#118=DIRECTION('',(-1.,0.,0.));
#119=DIRECTION('',(-6.12323399573677E-17,0.,-1.));
#120=DIRECTION('',(-1.,0.,0.));
#121=DIRECTION('',(0.,0.,-1.));
#122=DIRECTION('',(-1.,0.,0.));
#123=DIRECTION('',(-6.12323399573677E-17,0.,-1.));
#124=DIRECTION('',(-1.,0.,0.));
#125=DIRECTION('',(0.,0.,-1.));
#126=DIRECTION('',(-1.,0.,0.));
#127=DIRECTION('',(0.,0.,-1.));
#128=DIRECTION('',(-1.,0.,0.));
#129=DIRECTION('',(0.,0.,-1.));
#130=DIRECTION('',(-1.,0.,0.));
#131=DIRECTION('',(0.,0.,-1.));
#132=DIRECTION('',(-1.,0.,0.));
#133=DIRECTION('',(0.,0.,-1.));
#134=DIRECTION('',(-1.,0.,0.));
#135=CARTESIAN_POINT('',(0.,0.,0.));
#136=CARTESIAN_POINT('',(0.,0.,-10.3405754191921));
#137=CARTESIAN_POINT('',(-18.85,0.,-10.3405754191921));
#138=CARTESIAN_POINT('',(0.,0.,0.400169252800326));
#139=CARTESIAN_POINT('',(-18.85,0.,0.400169252800326));
#140=CARTESIAN_POINT('',(0.,0.,0.));
#141=CARTESIAN_POINT('',(0.,0.,0.));
#142=CARTESIAN_POINT('',(0.,0.,-14.1836063899096));
#143=CARTESIAN_POINT('',(-18.737003756634,0.,-14.1836063899096));
#144=CARTESIAN_POINT('',(0.,0.,0.));
#145=CARTESIAN_POINT('',(0.,0.,-13.5499317407402));
#146=CARTESIAN_POINT('',(-16.85,0.,-13.5499317407402));
#147=CARTESIAN_POINT('',(0.,0.,-13.5499317407402));
#148=CARTESIAN_POINT('',(0.,0.,0.400169252800325));
#149=CARTESIAN_POINT('',(-16.85,0.,0.400169252800325));
#150=CARTESIAN_POINT('',(0.,0.,0.));
#151=CARTESIAN_POINT('',(-16.85,0.,0.400169252800326));
#152=MECHANICAL_DESIGN_GEOMETRIC_PRESENTATION_REPRESENTATION('',(#32),#153);
#153=(
GEOMETRIC_REPRESENTATION_CONTEXT(3)
GLOBAL_UNCERTAINTY_ASSIGNED_CONTEXT((#154))
GLOBAL_UNIT_ASSIGNED_CONTEXT((#160,#156,#155))
REPRESENTATION_CONTEXT('Rohrabschlusskugel_X143',
'TOP_LEVEL_ASSEMBLY_PART')
);
#154=UNCERTAINTY_MEASURE_WITH_UNIT(LENGTH_MEASURE(2.E-5),#160,
'DISTANCE_ACCURACY_VALUE','Maximum Tolerance applied to model');
#155=(
NAMED_UNIT(*)
SI_UNIT($,.STERADIAN.)
SOLID_ANGLE_UNIT()
);
#156=(
CONVERSION_BASED_UNIT('DEGREE',#158)
NAMED_UNIT(#157)
PLANE_ANGLE_UNIT()
);
#157=DIMENSIONAL_EXPONENTS(0.,0.,0.,0.,0.,0.,0.);
#158=PLANE_ANGLE_MEASURE_WITH_UNIT(PLANE_ANGLE_MEASURE(0.0174532925),#159);
#159=(
NAMED_UNIT(*)
PLANE_ANGLE_UNIT()
SI_UNIT($,.RADIAN.)
);
#160=(
LENGTH_UNIT()
NAMED_UNIT(*)
SI_UNIT(.MILLI.,.METRE.)
);
ENDSEC;
END-ISO-10303-21;
