ISO-10303-21;
HEADER;
/* Generated by software containing ST-Developer
 * from STEP Tools, Inc. (www.steptools.com) 
 */
/* OPTION: using custom schema-name function */

FILE_DESCRIPTION(
/* description */ (''),
/* implementation_level */ '2;1');

FILE_NAME(
/* name */ 'Kugelfaufsatz_X144.stp',
/* time_stamp */ '2017-05-31T10:27:30+02:00',
/* author */ (''),
/* organization */ (''),
/* preprocessor_version */ 'ST-DEVELOPER v16',
/* originating_system */ 'SIEMENS PLM Software NX 11.0',
/* authorisation */ '');

FILE_SCHEMA (('AUTOMOTIVE_DESIGN { 1 0 10303 214 3 1 1 1 }'));
ENDSEC;

DATA;
#10=PROPERTY_DEFINITION_REPRESENTATION(#14,#12);
#11=PROPERTY_DEFINITION_REPRESENTATION(#15,#13);
#12=REPRESENTATION('',(#16),#233);
#13=REPRESENTATION('',(#17),#233);
#14=PROPERTY_DEFINITION('pmi validation property','',#21);
#15=PROPERTY_DEFINITION('pmi validation property','',#21);
#16=VALUE_REPRESENTATION_ITEM('number of annotations',COUNT_MEASURE(0.));
#17=VALUE_REPRESENTATION_ITEM('number of views',COUNT_MEASURE(0.));
#18=SHAPE_REPRESENTATION_RELATIONSHIP('None',
'relationship between Goge2404B7CEt5t9-None and Goge2404B7CEt5t9-None',
#30,#19);
#19=ADVANCED_BREP_SHAPE_REPRESENTATION('Goge2404B7CEt5t9-None',(#40),#233);
#20=SHAPE_DEFINITION_REPRESENTATION(#21,#30);
#21=PRODUCT_DEFINITION_SHAPE('','',#22);
#22=PRODUCT_DEFINITION(' ','',#24,#23);
#23=PRODUCT_DEFINITION_CONTEXT('part definition',#29,'design');
#24=PRODUCT_DEFINITION_FORMATION_WITH_SPECIFIED_SOURCE(' ',' ',#26,
 .NOT_KNOWN.);
#25=PRODUCT_RELATED_PRODUCT_CATEGORY('part','',(#26));
#26=PRODUCT('Goge2404B7CEt5t9','Goge2404B7CEt5t9',' ',(#27));
#27=PRODUCT_CONTEXT(' ',#29,'mechanical');
#28=APPLICATION_PROTOCOL_DEFINITION('international standard',
'automotive_design',2010,#29);
#29=APPLICATION_CONTEXT(
'core data for automotive mechanical design processes');
#30=SHAPE_REPRESENTATION('Goge2404B7CEt5t9-None',(#143),#233);
#31=PRESENTATION_LAYER_ASSIGNMENT('1','Layer 1',(#40));
#32=STYLED_ITEM('',(#33),#40);
#33=PRESENTATION_STYLE_ASSIGNMENT((#34));
#34=SURFACE_STYLE_USAGE(.BOTH.,#35);
#35=SURFACE_SIDE_STYLE('',(#36));
#36=SURFACE_STYLE_FILL_AREA(#37);
#37=FILL_AREA_STYLE('',(#38));
#38=FILL_AREA_STYLE_COLOUR('',#39);
#39=COLOUR_RGB('Medium Steel',0.596063172350652,0.666666666666667,0.686259250782025);
#40=MANIFOLD_SOLID_BREP('',#41);
#41=CLOSED_SHELL('',(#52,#53,#54,#55,#56,#57,#58,#59,#60,#61));
#42=TOROIDAL_SURFACE('',#155,15.5,2.5);
#43=TOROIDAL_SURFACE('',#159,44.1179140837672,31.8674346669834);
#44=TOROIDAL_SURFACE('',#161,12.313178684153,8.88682131584701);
#45=SPHERICAL_SURFACE('',#153,35.);
#46=FACE_OUTER_BOUND('',#86,.T.);
#47=FACE_OUTER_BOUND('',#87,.T.);
#48=CONICAL_SURFACE('',#150,19.4196094930772,44.9999999999997);
#49=CYLINDRICAL_SURFACE('',#148,19.4196094930772);
#50=CYLINDRICAL_SURFACE('',#157,13.);
#51=CYLINDRICAL_SURFACE('',#162,21.2);
#52=ADVANCED_FACE('',(#64,#65),#62,.F.);
#53=ADVANCED_FACE('',(#66,#67),#49,.T.);
#54=ADVANCED_FACE('',(#68,#69),#48,.T.);
#55=ADVANCED_FACE('',(#46),#63,.F.);
#56=ADVANCED_FACE('',(#47),#45,.T.);
#57=ADVANCED_FACE('',(#70,#71),#42,.F.);
#58=ADVANCED_FACE('',(#72,#73),#50,.T.);
#59=ADVANCED_FACE('',(#74,#75),#43,.F.);
#60=ADVANCED_FACE('',(#76,#77),#44,.T.);
#61=ADVANCED_FACE('',(#78,#79),#51,.T.);
#62=PLANE('',#146);
#63=PLANE('',#151);
#64=FACE_BOUND('',#80,.T.);
#65=FACE_BOUND('',#81,.T.);
#66=FACE_BOUND('',#82,.T.);
#67=FACE_BOUND('',#83,.T.);
#68=FACE_BOUND('',#84,.T.);
#69=FACE_BOUND('',#85,.T.);
#70=FACE_BOUND('',#88,.T.);
#71=FACE_BOUND('',#89,.T.);
#72=FACE_BOUND('',#90,.T.);
#73=FACE_BOUND('',#91,.T.);
#74=FACE_BOUND('',#92,.T.);
#75=FACE_BOUND('',#93,.T.);
#76=FACE_BOUND('',#94,.T.);
#77=FACE_BOUND('',#95,.T.);
#78=FACE_BOUND('',#96,.T.);
#79=FACE_BOUND('',#97,.T.);
#80=EDGE_LOOP('',(#98));
#81=EDGE_LOOP('',(#99));
#82=EDGE_LOOP('',(#100));
#83=EDGE_LOOP('',(#101));
#84=EDGE_LOOP('',(#102));
#85=EDGE_LOOP('',(#103));
#86=EDGE_LOOP('',(#104));
#87=EDGE_LOOP('',(#105));
#88=EDGE_LOOP('',(#106));
#89=EDGE_LOOP('',(#107));
#90=EDGE_LOOP('',(#108));
#91=EDGE_LOOP('',(#109));
#92=EDGE_LOOP('',(#110));
#93=EDGE_LOOP('',(#111));
#94=EDGE_LOOP('',(#112));
#95=EDGE_LOOP('',(#113));
#96=EDGE_LOOP('',(#114));
#97=EDGE_LOOP('',(#115));
#98=ORIENTED_EDGE('',*,*,#125,.F.);
#99=ORIENTED_EDGE('',*,*,#126,.T.);
#100=ORIENTED_EDGE('',*,*,#127,.F.);
#101=ORIENTED_EDGE('',*,*,#125,.T.);
#102=ORIENTED_EDGE('',*,*,#128,.F.);
#103=ORIENTED_EDGE('',*,*,#127,.T.);
#104=ORIENTED_EDGE('',*,*,#128,.T.);
#105=ORIENTED_EDGE('',*,*,#129,.F.);
#106=ORIENTED_EDGE('',*,*,#130,.F.);
#107=ORIENTED_EDGE('',*,*,#129,.T.);
#108=ORIENTED_EDGE('',*,*,#131,.F.);
#109=ORIENTED_EDGE('',*,*,#130,.T.);
#110=ORIENTED_EDGE('',*,*,#132,.F.);
#111=ORIENTED_EDGE('',*,*,#131,.T.);
#112=ORIENTED_EDGE('',*,*,#133,.F.);
#113=ORIENTED_EDGE('',*,*,#132,.T.);
#114=ORIENTED_EDGE('',*,*,#126,.F.);
#115=ORIENTED_EDGE('',*,*,#133,.T.);
#116=VERTEX_POINT('',#205);
#117=VERTEX_POINT('',#207);
#118=VERTEX_POINT('',#210);
#119=VERTEX_POINT('',#213);
#120=VERTEX_POINT('',#217);
#121=VERTEX_POINT('',#220);
#122=VERTEX_POINT('',#223);
#123=VERTEX_POINT('',#226);
#124=VERTEX_POINT('',#229);
#125=EDGE_CURVE('',#116,#116,#134,.T.);
#126=EDGE_CURVE('',#117,#117,#135,.T.);
#127=EDGE_CURVE('',#118,#118,#136,.T.);
#128=EDGE_CURVE('',#119,#119,#137,.T.);
#129=EDGE_CURVE('',#120,#120,#138,.T.);
#130=EDGE_CURVE('',#121,#121,#139,.T.);
#131=EDGE_CURVE('',#122,#122,#140,.T.);
#132=EDGE_CURVE('',#123,#123,#141,.T.);
#133=EDGE_CURVE('',#124,#124,#142,.T.);
#134=CIRCLE('',#144,19.4196094930771);
#135=CIRCLE('',#145,21.2);
#136=CIRCLE('',#147,19.4196094930772);
#137=CIRCLE('',#149,18.2196094930772);
#138=CIRCLE('',#152,14.4666666666667);
#139=CIRCLE('',#154,13.);
#140=CIRCLE('',#156,13.);
#141=CIRCLE('',#158,19.2484789044108);
#142=CIRCLE('',#160,21.2);
#143=AXIS2_PLACEMENT_3D('',#203,#163,#164);
#144=AXIS2_PLACEMENT_3D('',#204,#165,#166);
#145=AXIS2_PLACEMENT_3D('',#206,#167,#168);
#146=AXIS2_PLACEMENT_3D('',#208,#169,#170);
#147=AXIS2_PLACEMENT_3D('',#209,#171,#172);
#148=AXIS2_PLACEMENT_3D('',#211,#173,#174);
#149=AXIS2_PLACEMENT_3D('',#212,#175,#176);
#150=AXIS2_PLACEMENT_3D('',#214,#177,#178);
#151=AXIS2_PLACEMENT_3D('',#215,#179,#180);
#152=AXIS2_PLACEMENT_3D('',#216,#181,#182);
#153=AXIS2_PLACEMENT_3D('',#218,#183,#184);
#154=AXIS2_PLACEMENT_3D('',#219,#185,#186);
#155=AXIS2_PLACEMENT_3D('',#221,#187,#188);
#156=AXIS2_PLACEMENT_3D('',#222,#189,#190);
#157=AXIS2_PLACEMENT_3D('',#224,#191,#192);
#158=AXIS2_PLACEMENT_3D('',#225,#193,#194);
#159=AXIS2_PLACEMENT_3D('',#227,#195,#196);
#160=AXIS2_PLACEMENT_3D('',#228,#197,#198);
#161=AXIS2_PLACEMENT_3D('',#230,#199,#200);
#162=AXIS2_PLACEMENT_3D('',#231,#201,#202);
#163=DIRECTION('',(0.,0.,1.));
#164=DIRECTION('',(1.,0.,0.));
#165=DIRECTION('',(-1.,0.,0.));
#166=DIRECTION('',(0.,0.,1.));
#167=DIRECTION('',(-1.,0.,0.));
#168=DIRECTION('',(0.,0.,1.));
#169=DIRECTION('',(1.,0.,0.));
#170=DIRECTION('',(0.,0.,-1.));
#171=DIRECTION('',(-1.,0.,0.));
#172=DIRECTION('',(0.,0.,1.));
#173=DIRECTION('',(-1.,0.,0.));
#174=DIRECTION('',(0.,0.,1.));
#175=DIRECTION('',(-1.,0.,0.));
#176=DIRECTION('',(0.,0.,1.));
#177=DIRECTION('',(1.,0.,0.));
#178=DIRECTION('',(2.72268409957614E-17,0.,-1.));
#179=DIRECTION('',(1.,0.,0.));
#180=DIRECTION('',(0.,0.,-1.));
#181=DIRECTION('',(-1.,0.,0.));
#182=DIRECTION('',(0.,0.,1.));
#183=DIRECTION('',(-1.,0.,6.12323399573677E-17));
#184=DIRECTION('',(0.,0.,1.));
#185=DIRECTION('',(-1.,0.,0.));
#186=DIRECTION('',(0.,0.,1.));
#187=DIRECTION('',(-1.,0.,0.));
#188=DIRECTION('',(0.,0.,1.));
#189=DIRECTION('',(-1.,0.,0.));
#190=DIRECTION('',(0.,0.,1.));
#191=DIRECTION('',(-1.,0.,0.));
#192=DIRECTION('',(0.,0.,1.));
#193=DIRECTION('',(-1.,0.,0.));
#194=DIRECTION('',(0.,0.,1.));
#195=DIRECTION('',(-1.,0.,0.));
#196=DIRECTION('',(0.,0.,1.));
#197=DIRECTION('',(-1.,0.,0.));
#198=DIRECTION('',(0.,0.,1.));
#199=DIRECTION('',(-1.,0.,0.));
#200=DIRECTION('',(0.,0.,1.));
#201=DIRECTION('',(-1.,0.,0.));
#202=DIRECTION('',(0.,0.,1.));
#203=CARTESIAN_POINT('',(0.,0.,0.));
#204=CARTESIAN_POINT('',(-29.0136448912822,0.,0.));
#205=CARTESIAN_POINT('',(-29.0136448912822,0.,19.4196094930771));
#206=CARTESIAN_POINT('',(-29.0136448912822,0.,0.));
#207=CARTESIAN_POINT('',(-29.0136448912822,0.,21.2));
#208=CARTESIAN_POINT('',(-29.0136448912822,0.,21.2));
#209=CARTESIAN_POINT('',(-52.8136448912822,0.,0.));
#210=CARTESIAN_POINT('',(-52.8136448912822,0.,19.4196094930772));
#211=CARTESIAN_POINT('',(-12.5068224456411,0.,0.));
#212=CARTESIAN_POINT('',(-54.0136448912822,0.,0.));
#213=CARTESIAN_POINT('',(-54.0136448912822,0.,18.2196094930772));
#214=CARTESIAN_POINT('',(-52.8136448912822,0.,0.));
#215=CARTESIAN_POINT('',(-54.0136448912822,0.,18.2196094930772));
#216=CARTESIAN_POINT('',(8.11606242798525,0.,0.));
#217=CARTESIAN_POINT('',(8.11606242798525,0.,14.4666666666667));
#218=CARTESIAN_POINT('',(39.9863551087178,0.,0.));
#219=CARTESIAN_POINT('',(5.83961295079016,0.,0.));
#220=CARTESIAN_POINT('',(5.83961295079016,0.,13.));
#221=CARTESIAN_POINT('',(5.83961295079016,0.,0.));
#222=CARTESIAN_POINT('',(5.,0.,0.));
#223=CARTESIAN_POINT('',(5.,0.,13.));
#224=CARTESIAN_POINT('',(-12.5068224456411,0.,0.));
#225=CARTESIAN_POINT('',(-21.7968448156239,0.,0.));
#226=CARTESIAN_POINT('',(-21.7968448156239,0.,19.2484789044108));
#227=CARTESIAN_POINT('',(-1.87086714540033,0.,0.));
#228=CARTESIAN_POINT('',(-27.3535708260265,0.,0.));
#229=CARTESIAN_POINT('',(-27.3535708260265,0.,21.2));
#230=CARTESIAN_POINT('',(-27.3535708260265,0.,0.));
#231=CARTESIAN_POINT('',(-12.5068224456411,0.,0.));
#232=MECHANICAL_DESIGN_GEOMETRIC_PRESENTATION_REPRESENTATION('',(#32),#233);
#233=(
GEOMETRIC_REPRESENTATION_CONTEXT(3)
GLOBAL_UNCERTAINTY_ASSIGNED_CONTEXT((#234))
GLOBAL_UNIT_ASSIGNED_CONTEXT((#240,#236,#235))
REPRESENTATION_CONTEXT('Kugelfaufsatz_X144','TOP_LEVEL_ASSEMBLY_PART')
);
#234=UNCERTAINTY_MEASURE_WITH_UNIT(LENGTH_MEASURE(2.E-5),#240,
'DISTANCE_ACCURACY_VALUE','Maximum Tolerance applied to model');
#235=(
NAMED_UNIT(*)
SI_UNIT($,.STERADIAN.)
SOLID_ANGLE_UNIT()
);
#236=(
CONVERSION_BASED_UNIT('DEGREE',#238)
NAMED_UNIT(#237)
PLANE_ANGLE_UNIT()
);
#237=DIMENSIONAL_EXPONENTS(0.,0.,0.,0.,0.,0.,0.);
#238=PLANE_ANGLE_MEASURE_WITH_UNIT(PLANE_ANGLE_MEASURE(0.0174532925),#239);
#239=(
NAMED_UNIT(*)
PLANE_ANGLE_UNIT()
SI_UNIT($,.RADIAN.)
);
#240=(
LENGTH_UNIT()
NAMED_UNIT(*)
SI_UNIT(.MILLI.,.METRE.)
);
ENDSEC;
END-ISO-10303-21;
