ISO-10303-21;
HEADER;
/* Generated by software containing ST-Developer
 * from STEP Tools, Inc. (www.steptools.com) 
 */
/* OPTION: using custom schema-name function */

FILE_DESCRIPTION(
/* description */ (''),
/* implementation_level */ '2;1');

FILE_NAME(
/* name */ 'Rohnden_X254.stp',
/* time_stamp */ '2017-06-15T09:57:22+02:00',
/* author */ (''),
/* organization */ (''),
/* preprocessor_version */ 'ST-DEVELOPER v16',
/* originating_system */ 'SIEMENS PLM Software NX 11.0',
/* authorisation */ '');

FILE_SCHEMA (('AUTOMOTIVE_DESIGN { 1 0 10303 214 3 1 1 1 }'));
ENDSEC;

DATA;
#10=PROPERTY_DEFINITION_REPRESENTATION(#14,#12);
#11=PROPERTY_DEFINITION_REPRESENTATION(#15,#13);
#12=REPRESENTATION('',(#16),#93);
#13=REPRESENTATION('',(#17),#93);
#14=PROPERTY_DEFINITION('pmi validation property','',#21);
#15=PROPERTY_DEFINITION('pmi validation property','',#21);
#16=VALUE_REPRESENTATION_ITEM('number of annotations',COUNT_MEASURE(0.));
#17=VALUE_REPRESENTATION_ITEM('number of views',COUNT_MEASURE(0.));
#18=SHAPE_REPRESENTATION_RELATIONSHIP('None',
'relationship between Goge1D3CD327kvom-None and Goge1D3CD327kvom-None',
#30,#19);
#19=ADVANCED_BREP_SHAPE_REPRESENTATION('Goge1D3CD327kvom-None',(#40),#93);
#20=SHAPE_DEFINITION_REPRESENTATION(#21,#30);
#21=PRODUCT_DEFINITION_SHAPE('','',#22);
#22=PRODUCT_DEFINITION(' ','',#24,#23);
#23=PRODUCT_DEFINITION_CONTEXT('part definition',#29,'design');
#24=PRODUCT_DEFINITION_FORMATION_WITH_SPECIFIED_SOURCE(' ',' ',#26,
 .NOT_KNOWN.);
#25=PRODUCT_RELATED_PRODUCT_CATEGORY('part','',(#26));
#26=PRODUCT('Goge1D3CD327kvom','Goge1D3CD327kvom',' ',(#27));
#27=PRODUCT_CONTEXT(' ',#29,'mechanical');
#28=APPLICATION_PROTOCOL_DEFINITION('international standard',
'automotive_design',2010,#29);
#29=APPLICATION_CONTEXT(
'core data for automotive mechanical design processes');
#30=SHAPE_REPRESENTATION('Goge1D3CD327kvom-None',(#66),#93);
#31=PRESENTATION_LAYER_ASSIGNMENT('1','Layer 1',(#40));
#32=STYLED_ITEM('',(#33),#40);
#33=PRESENTATION_STYLE_ASSIGNMENT((#34));
#34=SURFACE_STYLE_USAGE(.BOTH.,#35);
#35=SURFACE_SIDE_STYLE('',(#36));
#36=SURFACE_STYLE_FILL_AREA(#37);
#37=FILL_AREA_STYLE('',(#38));
#38=FILL_AREA_STYLE_COLOUR('',#39);
#39=COLOUR_RGB('Medium Steel',0.596063172350652,0.666666666666667,0.686259250782025);
#40=MANIFOLD_SOLID_BREP('',#41);
#41=CLOSED_SHELL('',(#46,#47,#48));
#42=PLANE('',#70);
#43=PLANE('',#71);
#44=FACE_OUTER_BOUND('',#54,.T.);
#45=FACE_OUTER_BOUND('',#55,.T.);
#46=ADVANCED_FACE('',(#50,#51),#49,.T.);
#47=ADVANCED_FACE('',(#44),#42,.T.);
#48=ADVANCED_FACE('',(#45),#43,.F.);
#49=CYLINDRICAL_SURFACE('',#69,30.);
#50=FACE_BOUND('',#52,.T.);
#51=FACE_BOUND('',#53,.T.);
#52=EDGE_LOOP('',(#56));
#53=EDGE_LOOP('',(#57));
#54=EDGE_LOOP('',(#58));
#55=EDGE_LOOP('',(#59));
#56=ORIENTED_EDGE('',*,*,#62,.F.);
#57=ORIENTED_EDGE('',*,*,#63,.T.);
#58=ORIENTED_EDGE('',*,*,#62,.T.);
#59=ORIENTED_EDGE('',*,*,#63,.F.);
#60=VERTEX_POINT('',#86);
#61=VERTEX_POINT('',#88);
#62=EDGE_CURVE('',#60,#60,#64,.T.);
#63=EDGE_CURVE('',#61,#61,#65,.T.);
#64=CIRCLE('',#67,30.);
#65=CIRCLE('',#68,30.);
#66=AXIS2_PLACEMENT_3D('',#84,#72,#73);
#67=AXIS2_PLACEMENT_3D('',#85,#74,#75);
#68=AXIS2_PLACEMENT_3D('',#87,#76,#77);
#69=AXIS2_PLACEMENT_3D('',#89,#78,#79);
#70=AXIS2_PLACEMENT_3D('',#90,#80,#81);
#71=AXIS2_PLACEMENT_3D('',#91,#82,#83);
#72=DIRECTION('',(0.,0.,1.));
#73=DIRECTION('',(1.,0.,0.));
#74=DIRECTION('',(0.,0.,1.));
#75=DIRECTION('',(1.,0.,0.));
#76=DIRECTION('',(0.,0.,1.));
#77=DIRECTION('',(1.,0.,0.));
#78=DIRECTION('',(0.,0.,-1.));
#79=DIRECTION('',(-1.,0.,0.));
#80=DIRECTION('',(0.,0.,1.));
#81=DIRECTION('',(1.,0.,0.));
#82=DIRECTION('',(0.,0.,1.));
#83=DIRECTION('',(1.,0.,0.));
#84=CARTESIAN_POINT('',(0.,0.,0.));
#85=CARTESIAN_POINT('',(0.,0.,4.));
#86=CARTESIAN_POINT('',(30.,0.,4.));
#87=CARTESIAN_POINT('',(0.,0.,0.));
#88=CARTESIAN_POINT('',(30.,0.,0.));
#89=CARTESIAN_POINT('',(0.,0.,4.));
#90=CARTESIAN_POINT('',(0.,0.,4.));
#91=CARTESIAN_POINT('',(0.,0.,0.));
#92=MECHANICAL_DESIGN_GEOMETRIC_PRESENTATION_REPRESENTATION('',(#32),#93);
#93=(
GEOMETRIC_REPRESENTATION_CONTEXT(3)
GLOBAL_UNCERTAINTY_ASSIGNED_CONTEXT((#94))
GLOBAL_UNIT_ASSIGNED_CONTEXT((#100,#96,#95))
REPRESENTATION_CONTEXT('Rohnden_X254','TOP_LEVEL_ASSEMBLY_PART')
);
#94=UNCERTAINTY_MEASURE_WITH_UNIT(LENGTH_MEASURE(2.E-5),#100,
'DISTANCE_ACCURACY_VALUE','Maximum Tolerance applied to model');
#95=(
NAMED_UNIT(*)
SI_UNIT($,.STERADIAN.)
SOLID_ANGLE_UNIT()
);
#96=(
CONVERSION_BASED_UNIT('DEGREE',#98)
NAMED_UNIT(#97)
PLANE_ANGLE_UNIT()
);
#97=DIMENSIONAL_EXPONENTS(0.,0.,0.,0.,0.,0.,0.);
#98=PLANE_ANGLE_MEASURE_WITH_UNIT(PLANE_ANGLE_MEASURE(0.0174532925),#99);
#99=(
NAMED_UNIT(*)
PLANE_ANGLE_UNIT()
SI_UNIT($,.RADIAN.)
);
#100=(
LENGTH_UNIT()
NAMED_UNIT(*)
SI_UNIT(.MILLI.,.METRE.)
);
ENDSEC;
END-ISO-10303-21;
