ISO-10303-21;
HEADER;
/* Generated by software containing ST-Developer
 * from STEP Tools, Inc. (www.steptools.com) 
 */
/* OPTION: using custom schema-name function */

FILE_DESCRIPTION(
/* description */ (''),
/* implementation_level */ '2;1');

FILE_NAME(
/* name */ 'Einpressflansch_X243.stp',
/* time_stamp */ '2017-06-15T10:05:34+02:00',
/* author */ (''),
/* organization */ (''),
/* preprocessor_version */ 'ST-DEVELOPER v16',
/* originating_system */ 'SIEMENS PLM Software NX 11.0',
/* authorisation */ '');

FILE_SCHEMA (('AUTOMOTIVE_DESIGN { 1 0 10303 214 3 1 1 1 }'));
ENDSEC;

DATA;
#10=PROPERTY_DEFINITION_REPRESENTATION(#14,#12);
#11=PROPERTY_DEFINITION_REPRESENTATION(#15,#13);
#12=REPRESENTATION('',(#16),#679);
#13=REPRESENTATION('',(#17),#679);
#14=PROPERTY_DEFINITION('pmi validation property','',#21);
#15=PROPERTY_DEFINITION('pmi validation property','',#21);
#16=VALUE_REPRESENTATION_ITEM('number of annotations',COUNT_MEASURE(0.));
#17=VALUE_REPRESENTATION_ITEM('number of views',COUNT_MEASURE(0.));
#18=SHAPE_REPRESENTATION_RELATIONSHIP('None',
'relationship between Goge2128018Ckwym-None and Goge2128018Ckwym-None',
#30,#19);
#19=ADVANCED_BREP_SHAPE_REPRESENTATION('Goge2128018Ckwym-None',(#40),#679);
#20=SHAPE_DEFINITION_REPRESENTATION(#21,#30);
#21=PRODUCT_DEFINITION_SHAPE('','',#22);
#22=PRODUCT_DEFINITION(' ','',#24,#23);
#23=PRODUCT_DEFINITION_CONTEXT('part definition',#29,'design');
#24=PRODUCT_DEFINITION_FORMATION_WITH_SPECIFIED_SOURCE(' ',' ',#26,
 .NOT_KNOWN.);
#25=PRODUCT_RELATED_PRODUCT_CATEGORY('part','',(#26));
#26=PRODUCT('Goge2128018Ckwym','Goge2128018Ckwym',' ',(#27));
#27=PRODUCT_CONTEXT(' ',#29,'mechanical');
#28=APPLICATION_PROTOCOL_DEFINITION('international standard',
'automotive_design',2010,#29);
#29=APPLICATION_CONTEXT(
'core data for automotive mechanical design processes');
#30=SHAPE_REPRESENTATION('Goge2128018Ckwym-None',(#392),#679);
#31=PRESENTATION_LAYER_ASSIGNMENT('1','Layer 1',(#40));
#32=STYLED_ITEM('',(#33),#40);
#33=PRESENTATION_STYLE_ASSIGNMENT((#34));
#34=SURFACE_STYLE_USAGE(.BOTH.,#35);
#35=SURFACE_SIDE_STYLE('',(#36));
#36=SURFACE_STYLE_FILL_AREA(#37);
#37=FILL_AREA_STYLE('',(#38));
#38=FILL_AREA_STYLE_COLOUR('',#39);
#39=COLOUR_RGB('Medium Steel',0.596063172350652,0.666666666666667,0.686259250782025);
#40=MANIFOLD_SOLID_BREP('',#41);
#41=CLOSED_SHELL('',(#84,#85,#86,#87,#88,#89,#90,#91,#92,#93,#94,#95,#96,
#97,#98,#99,#100,#101,#102,#103,#104,#105));
#42=TOROIDAL_SURFACE('',#445,22.4,1.2);
#43=CONICAL_SURFACE('',#444,23.6,12.5288077091515);
#44=PLANE('',#439);
#45=PLANE('',#441);
#46=PLANE('',#443);
#47=PLANE('',#447);
#48=FACE_OUTER_BOUND('',#150,.T.);
#49=FACE_OUTER_BOUND('',#151,.T.);
#50=FACE_OUTER_BOUND('',#152,.T.);
#51=FACE_OUTER_BOUND('',#153,.T.);
#52=FACE_OUTER_BOUND('',#154,.T.);
#53=FACE_OUTER_BOUND('',#155,.T.);
#54=FACE_OUTER_BOUND('',#156,.T.);
#55=FACE_OUTER_BOUND('',#157,.T.);
#56=FACE_OUTER_BOUND('',#158,.T.);
#57=FACE_OUTER_BOUND('',#159,.T.);
#58=FACE_OUTER_BOUND('',#162,.T.);
#59=FACE_OUTER_BOUND('',#165,.T.);
#60=LINE('',#584,#72);
#61=LINE('',#588,#73);
#62=LINE('',#594,#74);
#63=LINE('',#600,#75);
#64=LINE('',#605,#76);
#65=LINE('',#609,#77);
#66=LINE('',#615,#78);
#67=LINE('',#621,#79);
#68=LINE('',#626,#80);
#69=LINE('',#630,#81);
#70=LINE('',#636,#82);
#71=LINE('',#642,#83);
#72=VECTOR('',#459,1.);
#73=VECTOR('',#462,1.);
#74=VECTOR('',#469,1.);
#75=VECTOR('',#476,1.);
#76=VECTOR('',#481,1.);
#77=VECTOR('',#484,1.);
#78=VECTOR('',#491,1.);
#79=VECTOR('',#498,1.);
#80=VECTOR('',#503,1.);
#81=VECTOR('',#506,1.);
#82=VECTOR('',#513,1.);
#83=VECTOR('',#520,1.);
#84=ADVANCED_FACE('',(#122,#123),#106,.T.);
#85=ADVANCED_FACE('',(#48),#107,.F.);
#86=ADVANCED_FACE('',(#49),#108,.T.);
#87=ADVANCED_FACE('',(#50),#109,.F.);
#88=ADVANCED_FACE('',(#51),#110,.F.);
#89=ADVANCED_FACE('',(#52),#111,.F.);
#90=ADVANCED_FACE('',(#53),#112,.T.);
#91=ADVANCED_FACE('',(#54),#113,.T.);
#92=ADVANCED_FACE('',(#55),#114,.F.);
#93=ADVANCED_FACE('',(#56),#115,.F.);
#94=ADVANCED_FACE('',(#57),#116,.F.);
#95=ADVANCED_FACE('',(#124,#125),#117,.F.);
#96=ADVANCED_FACE('',(#58),#118,.F.);
#97=ADVANCED_FACE('',(#126,#127),#119,.T.);
#98=ADVANCED_FACE('',(#59),#120,.F.);
#99=ADVANCED_FACE('',(#128,#129,#130,#131,#132),#44,.F.);
#100=ADVANCED_FACE('',(#133,#134,#135,#136,#137),#45,.T.);
#101=ADVANCED_FACE('',(#138,#139),#46,.T.);
#102=ADVANCED_FACE('',(#140,#141),#43,.T.);
#103=ADVANCED_FACE('',(#142,#143),#42,.T.);
#104=ADVANCED_FACE('',(#144,#145),#47,.T.);
#105=ADVANCED_FACE('',(#146,#147),#121,.T.);
#106=CYLINDRICAL_SURFACE('',#395,24.2);
#107=CYLINDRICAL_SURFACE('',#398,5.50000000000001);
#108=CYLINDRICAL_SURFACE('',#401,32.);
#109=CYLINDRICAL_SURFACE('',#404,5.5);
#110=CYLINDRICAL_SURFACE('',#407,43.);
#111=CYLINDRICAL_SURFACE('',#410,5.50000000000001);
#112=CYLINDRICAL_SURFACE('',#413,32.);
#113=CYLINDRICAL_SURFACE('',#416,32.);
#114=CYLINDRICAL_SURFACE('',#419,5.5);
#115=CYLINDRICAL_SURFACE('',#422,43.);
#116=CYLINDRICAL_SURFACE('',#425,5.5);
#117=CYLINDRICAL_SURFACE('',#428,21.2);
#118=CYLINDRICAL_SURFACE('',#431,5.50000000000001);
#119=CYLINDRICAL_SURFACE('',#434,50.);
#120=CYLINDRICAL_SURFACE('',#437,43.);
#121=CYLINDRICAL_SURFACE('',#448,22.9090039152912);
#122=FACE_BOUND('',#148,.T.);
#123=FACE_BOUND('',#149,.T.);
#124=FACE_BOUND('',#160,.T.);
#125=FACE_BOUND('',#161,.T.);
#126=FACE_BOUND('',#163,.T.);
#127=FACE_BOUND('',#164,.T.);
#128=FACE_BOUND('',#166,.T.);
#129=FACE_BOUND('',#167,.T.);
#130=FACE_BOUND('',#168,.T.);
#131=FACE_BOUND('',#169,.T.);
#132=FACE_BOUND('',#170,.T.);
#133=FACE_BOUND('',#171,.T.);
#134=FACE_BOUND('',#172,.T.);
#135=FACE_BOUND('',#173,.T.);
#136=FACE_BOUND('',#174,.T.);
#137=FACE_BOUND('',#175,.T.);
#138=FACE_BOUND('',#176,.T.);
#139=FACE_BOUND('',#177,.T.);
#140=FACE_BOUND('',#178,.T.);
#141=FACE_BOUND('',#179,.T.);
#142=FACE_BOUND('',#180,.T.);
#143=FACE_BOUND('',#181,.T.);
#144=FACE_BOUND('',#182,.T.);
#145=FACE_BOUND('',#183,.T.);
#146=FACE_BOUND('',#184,.T.);
#147=FACE_BOUND('',#185,.T.);
#148=EDGE_LOOP('',(#186));
#149=EDGE_LOOP('',(#187));
#150=EDGE_LOOP('',(#188,#189,#190,#191));
#151=EDGE_LOOP('',(#192,#193,#194,#195));
#152=EDGE_LOOP('',(#196,#197,#198,#199));
#153=EDGE_LOOP('',(#200,#201,#202,#203));
#154=EDGE_LOOP('',(#204,#205,#206,#207));
#155=EDGE_LOOP('',(#208,#209,#210,#211));
#156=EDGE_LOOP('',(#212,#213,#214,#215));
#157=EDGE_LOOP('',(#216,#217,#218,#219));
#158=EDGE_LOOP('',(#220,#221,#222,#223));
#159=EDGE_LOOP('',(#224,#225,#226,#227));
#160=EDGE_LOOP('',(#228));
#161=EDGE_LOOP('',(#229));
#162=EDGE_LOOP('',(#230,#231,#232,#233));
#163=EDGE_LOOP('',(#234));
#164=EDGE_LOOP('',(#235));
#165=EDGE_LOOP('',(#236,#237,#238,#239));
#166=EDGE_LOOP('',(#240));
#167=EDGE_LOOP('',(#241));
#168=EDGE_LOOP('',(#242,#243,#244,#245));
#169=EDGE_LOOP('',(#246,#247,#248,#249));
#170=EDGE_LOOP('',(#250,#251,#252,#253));
#171=EDGE_LOOP('',(#254));
#172=EDGE_LOOP('',(#255,#256,#257,#258));
#173=EDGE_LOOP('',(#259,#260,#261,#262));
#174=EDGE_LOOP('',(#263,#264,#265,#266));
#175=EDGE_LOOP('',(#267));
#176=EDGE_LOOP('',(#268));
#177=EDGE_LOOP('',(#269));
#178=EDGE_LOOP('',(#270));
#179=EDGE_LOOP('',(#271));
#180=EDGE_LOOP('',(#272));
#181=EDGE_LOOP('',(#273));
#182=EDGE_LOOP('',(#274));
#183=EDGE_LOOP('',(#275));
#184=EDGE_LOOP('',(#276));
#185=EDGE_LOOP('',(#277));
#186=ORIENTED_EDGE('',*,*,#312,.T.);
#187=ORIENTED_EDGE('',*,*,#313,.F.);
#188=ORIENTED_EDGE('',*,*,#314,.F.);
#189=ORIENTED_EDGE('',*,*,#315,.F.);
#190=ORIENTED_EDGE('',*,*,#316,.T.);
#191=ORIENTED_EDGE('',*,*,#317,.T.);
#192=ORIENTED_EDGE('',*,*,#318,.F.);
#193=ORIENTED_EDGE('',*,*,#317,.F.);
#194=ORIENTED_EDGE('',*,*,#319,.T.);
#195=ORIENTED_EDGE('',*,*,#320,.T.);
#196=ORIENTED_EDGE('',*,*,#321,.F.);
#197=ORIENTED_EDGE('',*,*,#320,.F.);
#198=ORIENTED_EDGE('',*,*,#322,.T.);
#199=ORIENTED_EDGE('',*,*,#323,.T.);
#200=ORIENTED_EDGE('',*,*,#324,.F.);
#201=ORIENTED_EDGE('',*,*,#325,.F.);
#202=ORIENTED_EDGE('',*,*,#326,.T.);
#203=ORIENTED_EDGE('',*,*,#327,.T.);
#204=ORIENTED_EDGE('',*,*,#328,.F.);
#205=ORIENTED_EDGE('',*,*,#327,.F.);
#206=ORIENTED_EDGE('',*,*,#329,.T.);
#207=ORIENTED_EDGE('',*,*,#330,.T.);
#208=ORIENTED_EDGE('',*,*,#331,.F.);
#209=ORIENTED_EDGE('',*,*,#330,.F.);
#210=ORIENTED_EDGE('',*,*,#332,.T.);
#211=ORIENTED_EDGE('',*,*,#333,.T.);
#212=ORIENTED_EDGE('',*,*,#334,.F.);
#213=ORIENTED_EDGE('',*,*,#335,.F.);
#214=ORIENTED_EDGE('',*,*,#336,.T.);
#215=ORIENTED_EDGE('',*,*,#337,.T.);
#216=ORIENTED_EDGE('',*,*,#338,.F.);
#217=ORIENTED_EDGE('',*,*,#337,.F.);
#218=ORIENTED_EDGE('',*,*,#339,.T.);
#219=ORIENTED_EDGE('',*,*,#340,.T.);
#220=ORIENTED_EDGE('',*,*,#341,.F.);
#221=ORIENTED_EDGE('',*,*,#340,.F.);
#222=ORIENTED_EDGE('',*,*,#342,.T.);
#223=ORIENTED_EDGE('',*,*,#343,.T.);
#224=ORIENTED_EDGE('',*,*,#344,.F.);
#225=ORIENTED_EDGE('',*,*,#333,.F.);
#226=ORIENTED_EDGE('',*,*,#345,.T.);
#227=ORIENTED_EDGE('',*,*,#325,.T.);
#228=ORIENTED_EDGE('',*,*,#346,.T.);
#229=ORIENTED_EDGE('',*,*,#347,.F.);
#230=ORIENTED_EDGE('',*,*,#348,.F.);
#231=ORIENTED_EDGE('',*,*,#343,.F.);
#232=ORIENTED_EDGE('',*,*,#349,.T.);
#233=ORIENTED_EDGE('',*,*,#335,.T.);
#234=ORIENTED_EDGE('',*,*,#350,.F.);
#235=ORIENTED_EDGE('',*,*,#351,.T.);
#236=ORIENTED_EDGE('',*,*,#352,.F.);
#237=ORIENTED_EDGE('',*,*,#323,.F.);
#238=ORIENTED_EDGE('',*,*,#353,.T.);
#239=ORIENTED_EDGE('',*,*,#315,.T.);
#240=ORIENTED_EDGE('',*,*,#354,.T.);
#241=ORIENTED_EDGE('',*,*,#351,.F.);
#242=ORIENTED_EDGE('',*,*,#349,.F.);
#243=ORIENTED_EDGE('',*,*,#342,.F.);
#244=ORIENTED_EDGE('',*,*,#339,.F.);
#245=ORIENTED_EDGE('',*,*,#336,.F.);
#246=ORIENTED_EDGE('',*,*,#345,.F.);
#247=ORIENTED_EDGE('',*,*,#332,.F.);
#248=ORIENTED_EDGE('',*,*,#329,.F.);
#249=ORIENTED_EDGE('',*,*,#326,.F.);
#250=ORIENTED_EDGE('',*,*,#316,.F.);
#251=ORIENTED_EDGE('',*,*,#353,.F.);
#252=ORIENTED_EDGE('',*,*,#322,.F.);
#253=ORIENTED_EDGE('',*,*,#319,.F.);
#254=ORIENTED_EDGE('',*,*,#350,.T.);
#255=ORIENTED_EDGE('',*,*,#348,.T.);
#256=ORIENTED_EDGE('',*,*,#334,.T.);
#257=ORIENTED_EDGE('',*,*,#338,.T.);
#258=ORIENTED_EDGE('',*,*,#341,.T.);
#259=ORIENTED_EDGE('',*,*,#344,.T.);
#260=ORIENTED_EDGE('',*,*,#324,.T.);
#261=ORIENTED_EDGE('',*,*,#328,.T.);
#262=ORIENTED_EDGE('',*,*,#331,.T.);
#263=ORIENTED_EDGE('',*,*,#352,.T.);
#264=ORIENTED_EDGE('',*,*,#314,.T.);
#265=ORIENTED_EDGE('',*,*,#318,.T.);
#266=ORIENTED_EDGE('',*,*,#321,.T.);
#267=ORIENTED_EDGE('',*,*,#355,.T.);
#268=ORIENTED_EDGE('',*,*,#356,.T.);
#269=ORIENTED_EDGE('',*,*,#347,.T.);
#270=ORIENTED_EDGE('',*,*,#312,.F.);
#271=ORIENTED_EDGE('',*,*,#356,.F.);
#272=ORIENTED_EDGE('',*,*,#354,.F.);
#273=ORIENTED_EDGE('',*,*,#346,.F.);
#274=ORIENTED_EDGE('',*,*,#357,.T.);
#275=ORIENTED_EDGE('',*,*,#313,.T.);
#276=ORIENTED_EDGE('',*,*,#357,.F.);
#277=ORIENTED_EDGE('',*,*,#355,.F.);
#278=VERTEX_POINT('',#577);
#279=VERTEX_POINT('',#579);
#280=VERTEX_POINT('',#582);
#281=VERTEX_POINT('',#583);
#282=VERTEX_POINT('',#585);
#283=VERTEX_POINT('',#587);
#284=VERTEX_POINT('',#591);
#285=VERTEX_POINT('',#593);
#286=VERTEX_POINT('',#597);
#287=VERTEX_POINT('',#599);
#288=VERTEX_POINT('',#603);
#289=VERTEX_POINT('',#604);
#290=VERTEX_POINT('',#606);
#291=VERTEX_POINT('',#608);
#292=VERTEX_POINT('',#612);
#293=VERTEX_POINT('',#614);
#294=VERTEX_POINT('',#618);
#295=VERTEX_POINT('',#620);
#296=VERTEX_POINT('',#624);
#297=VERTEX_POINT('',#625);
#298=VERTEX_POINT('',#627);
#299=VERTEX_POINT('',#629);
#300=VERTEX_POINT('',#633);
#301=VERTEX_POINT('',#635);
#302=VERTEX_POINT('',#639);
#303=VERTEX_POINT('',#641);
#304=VERTEX_POINT('',#648);
#305=VERTEX_POINT('',#650);
#306=VERTEX_POINT('',#656);
#307=VERTEX_POINT('',#658);
#308=VERTEX_POINT('',#664);
#309=VERTEX_POINT('',#667);
#310=VERTEX_POINT('',#670);
#311=VERTEX_POINT('',#675);
#312=EDGE_CURVE('',#278,#278,#358,.T.);
#313=EDGE_CURVE('',#279,#279,#359,.T.);
#314=EDGE_CURVE('',#280,#281,#360,.T.);
#315=EDGE_CURVE('',#282,#280,#60,.T.);
#316=EDGE_CURVE('',#282,#283,#361,.T.);
#317=EDGE_CURVE('',#283,#281,#61,.T.);
#318=EDGE_CURVE('',#281,#284,#362,.T.);
#319=EDGE_CURVE('',#283,#285,#363,.T.);
#320=EDGE_CURVE('',#285,#284,#62,.T.);
#321=EDGE_CURVE('',#284,#286,#364,.T.);
#322=EDGE_CURVE('',#285,#287,#365,.T.);
#323=EDGE_CURVE('',#287,#286,#63,.T.);
#324=EDGE_CURVE('',#288,#289,#366,.T.);
#325=EDGE_CURVE('',#290,#288,#64,.T.);
#326=EDGE_CURVE('',#290,#291,#367,.T.);
#327=EDGE_CURVE('',#291,#289,#65,.T.);
#328=EDGE_CURVE('',#289,#292,#368,.T.);
#329=EDGE_CURVE('',#291,#293,#369,.T.);
#330=EDGE_CURVE('',#293,#292,#66,.T.);
#331=EDGE_CURVE('',#292,#294,#370,.T.);
#332=EDGE_CURVE('',#293,#295,#371,.T.);
#333=EDGE_CURVE('',#295,#294,#67,.T.);
#334=EDGE_CURVE('',#296,#297,#372,.T.);
#335=EDGE_CURVE('',#298,#296,#68,.T.);
#336=EDGE_CURVE('',#298,#299,#373,.T.);
#337=EDGE_CURVE('',#299,#297,#69,.T.);
#338=EDGE_CURVE('',#297,#300,#374,.T.);
#339=EDGE_CURVE('',#299,#301,#375,.T.);
#340=EDGE_CURVE('',#301,#300,#70,.T.);
#341=EDGE_CURVE('',#300,#302,#376,.T.);
#342=EDGE_CURVE('',#301,#303,#377,.T.);
#343=EDGE_CURVE('',#303,#302,#71,.T.);
#344=EDGE_CURVE('',#294,#288,#378,.T.);
#345=EDGE_CURVE('',#295,#290,#379,.T.);
#346=EDGE_CURVE('',#304,#304,#380,.T.);
#347=EDGE_CURVE('',#305,#305,#381,.T.);
#348=EDGE_CURVE('',#302,#296,#382,.T.);
#349=EDGE_CURVE('',#303,#298,#383,.T.);
#350=EDGE_CURVE('',#306,#306,#384,.T.);
#351=EDGE_CURVE('',#307,#307,#385,.T.);
#352=EDGE_CURVE('',#286,#280,#386,.T.);
#353=EDGE_CURVE('',#287,#282,#387,.T.);
#354=EDGE_CURVE('',#308,#308,#388,.T.);
#355=EDGE_CURVE('',#309,#309,#389,.T.);
#356=EDGE_CURVE('',#310,#310,#390,.T.);
#357=EDGE_CURVE('',#311,#311,#391,.T.);
#358=CIRCLE('',#393,24.2);
#359=CIRCLE('',#394,24.2);
#360=CIRCLE('',#396,5.50000000000001);
#361=CIRCLE('',#397,5.50000000000001);
#362=CIRCLE('',#399,32.);
#363=CIRCLE('',#400,32.);
#364=CIRCLE('',#402,5.5);
#365=CIRCLE('',#403,5.5);
#366=CIRCLE('',#405,43.);
#367=CIRCLE('',#406,43.);
#368=CIRCLE('',#408,5.50000000000001);
#369=CIRCLE('',#409,5.50000000000001);
#370=CIRCLE('',#411,32.);
#371=CIRCLE('',#412,32.);
#372=CIRCLE('',#414,32.);
#373=CIRCLE('',#415,32.);
#374=CIRCLE('',#417,5.5);
#375=CIRCLE('',#418,5.5);
#376=CIRCLE('',#420,43.);
#377=CIRCLE('',#421,43.);
#378=CIRCLE('',#423,5.5);
#379=CIRCLE('',#424,5.5);
#380=CIRCLE('',#426,21.2);
#381=CIRCLE('',#427,21.2);
#382=CIRCLE('',#429,5.50000000000001);
#383=CIRCLE('',#430,5.50000000000001);
#384=CIRCLE('',#432,50.);
#385=CIRCLE('',#433,50.);
#386=CIRCLE('',#435,43.);
#387=CIRCLE('',#436,43.);
#388=CIRCLE('',#438,22.4);
#389=CIRCLE('',#440,22.9090039152912);
#390=CIRCLE('',#442,23.6);
#391=CIRCLE('',#446,22.9090039152912);
#392=AXIS2_PLACEMENT_3D('',#575,#449,#450);
#393=AXIS2_PLACEMENT_3D('',#576,#451,#452);
#394=AXIS2_PLACEMENT_3D('',#578,#453,#454);
#395=AXIS2_PLACEMENT_3D('',#580,#455,#456);
#396=AXIS2_PLACEMENT_3D('',#581,#457,#458);
#397=AXIS2_PLACEMENT_3D('',#586,#460,#461);
#398=AXIS2_PLACEMENT_3D('',#589,#463,#464);
#399=AXIS2_PLACEMENT_3D('',#590,#465,#466);
#400=AXIS2_PLACEMENT_3D('',#592,#467,#468);
#401=AXIS2_PLACEMENT_3D('',#595,#470,#471);
#402=AXIS2_PLACEMENT_3D('',#596,#472,#473);
#403=AXIS2_PLACEMENT_3D('',#598,#474,#475);
#404=AXIS2_PLACEMENT_3D('',#601,#477,#478);
#405=AXIS2_PLACEMENT_3D('',#602,#479,#480);
#406=AXIS2_PLACEMENT_3D('',#607,#482,#483);
#407=AXIS2_PLACEMENT_3D('',#610,#485,#486);
#408=AXIS2_PLACEMENT_3D('',#611,#487,#488);
#409=AXIS2_PLACEMENT_3D('',#613,#489,#490);
#410=AXIS2_PLACEMENT_3D('',#616,#492,#493);
#411=AXIS2_PLACEMENT_3D('',#617,#494,#495);
#412=AXIS2_PLACEMENT_3D('',#619,#496,#497);
#413=AXIS2_PLACEMENT_3D('',#622,#499,#500);
#414=AXIS2_PLACEMENT_3D('',#623,#501,#502);
#415=AXIS2_PLACEMENT_3D('',#628,#504,#505);
#416=AXIS2_PLACEMENT_3D('',#631,#507,#508);
#417=AXIS2_PLACEMENT_3D('',#632,#509,#510);
#418=AXIS2_PLACEMENT_3D('',#634,#511,#512);
#419=AXIS2_PLACEMENT_3D('',#637,#514,#515);
#420=AXIS2_PLACEMENT_3D('',#638,#516,#517);
#421=AXIS2_PLACEMENT_3D('',#640,#518,#519);
#422=AXIS2_PLACEMENT_3D('',#643,#521,#522);
#423=AXIS2_PLACEMENT_3D('',#644,#523,#524);
#424=AXIS2_PLACEMENT_3D('',#645,#525,#526);
#425=AXIS2_PLACEMENT_3D('',#646,#527,#528);
#426=AXIS2_PLACEMENT_3D('',#647,#529,#530);
#427=AXIS2_PLACEMENT_3D('',#649,#531,#532);
#428=AXIS2_PLACEMENT_3D('',#651,#533,#534);
#429=AXIS2_PLACEMENT_3D('',#652,#535,#536);
#430=AXIS2_PLACEMENT_3D('',#653,#537,#538);
#431=AXIS2_PLACEMENT_3D('',#654,#539,#540);
#432=AXIS2_PLACEMENT_3D('',#655,#541,#542);
#433=AXIS2_PLACEMENT_3D('',#657,#543,#544);
#434=AXIS2_PLACEMENT_3D('',#659,#545,#546);
#435=AXIS2_PLACEMENT_3D('',#660,#547,#548);
#436=AXIS2_PLACEMENT_3D('',#661,#549,#550);
#437=AXIS2_PLACEMENT_3D('',#662,#551,#552);
#438=AXIS2_PLACEMENT_3D('',#663,#553,#554);
#439=AXIS2_PLACEMENT_3D('',#665,#555,#556);
#440=AXIS2_PLACEMENT_3D('',#666,#557,#558);
#441=AXIS2_PLACEMENT_3D('',#668,#559,#560);
#442=AXIS2_PLACEMENT_3D('',#669,#561,#562);
#443=AXIS2_PLACEMENT_3D('',#671,#563,#564);
#444=AXIS2_PLACEMENT_3D('',#672,#565,#566);
#445=AXIS2_PLACEMENT_3D('',#673,#567,#568);
#446=AXIS2_PLACEMENT_3D('',#674,#569,#570);
#447=AXIS2_PLACEMENT_3D('',#676,#571,#572);
#448=AXIS2_PLACEMENT_3D('',#677,#573,#574);
#449=DIRECTION('',(0.,0.,1.));
#450=DIRECTION('',(1.,0.,0.));
#451=DIRECTION('',(0.,0.,-1.));
#452=DIRECTION('',(1.,0.,0.));
#453=DIRECTION('',(0.,0.,-1.));
#454=DIRECTION('',(-1.,0.,0.));
#455=DIRECTION('',(0.,0.,-1.));
#456=DIRECTION('',(-1.,0.,0.));
#457=DIRECTION('',(0.,0.,-1.));
#458=DIRECTION('',(-0.500000000000002,-0.866025403784437,0.));
#459=DIRECTION('',(0.,0.,1.));
#460=DIRECTION('',(0.,0.,-1.));
#461=DIRECTION('',(-0.500000000000002,-0.866025403784437,0.));
#462=DIRECTION('',(0.,0.,1.));
#463=DIRECTION('',(0.,0.,1.));
#464=DIRECTION('',(1.,0.,0.));
#465=DIRECTION('',(0.,0.,1.));
#466=DIRECTION('',(-0.500000000000003,-0.866025403784437,0.));
#467=DIRECTION('',(0.,0.,1.));
#468=DIRECTION('',(-0.500000000000003,-0.866025403784437,0.));
#469=DIRECTION('',(0.,0.,1.));
#470=DIRECTION('',(0.,0.,1.));
#471=DIRECTION('',(1.,0.,0.));
#472=DIRECTION('',(0.,0.,-1.));
#473=DIRECTION('',(-0.500000000000002,-0.866025403784437,0.));
#474=DIRECTION('',(0.,0.,-1.));
#475=DIRECTION('',(-0.500000000000002,-0.866025403784437,0.));
#476=DIRECTION('',(0.,0.,1.));
#477=DIRECTION('',(0.,0.,1.));
#478=DIRECTION('',(1.,0.,0.));
#479=DIRECTION('',(0.,0.,-1.));
#480=DIRECTION('',(-0.499999999999999,0.866025403784439,0.));
#481=DIRECTION('',(0.,0.,1.));
#482=DIRECTION('',(0.,0.,-1.));
#483=DIRECTION('',(-0.499999999999999,0.866025403784439,0.));
#484=DIRECTION('',(0.,0.,1.));
#485=DIRECTION('',(0.,0.,1.));
#486=DIRECTION('',(1.,0.,0.));
#487=DIRECTION('',(0.,0.,-1.));
#488=DIRECTION('',(-0.499999999999999,0.866025403784439,0.));
#489=DIRECTION('',(0.,0.,-1.));
#490=DIRECTION('',(-0.499999999999999,0.866025403784439,0.));
#491=DIRECTION('',(0.,0.,1.));
#492=DIRECTION('',(0.,0.,1.));
#493=DIRECTION('',(1.,0.,0.));
#494=DIRECTION('',(0.,0.,1.));
#495=DIRECTION('',(-0.499999999999999,0.866025403784439,0.));
#496=DIRECTION('',(0.,0.,1.));
#497=DIRECTION('',(-0.499999999999999,0.866025403784439,0.));
#498=DIRECTION('',(0.,0.,1.));
#499=DIRECTION('',(0.,0.,1.));
#500=DIRECTION('',(1.,0.,0.));
#501=DIRECTION('',(0.,0.,1.));
#502=DIRECTION('',(1.,0.,0.));
#503=DIRECTION('',(0.,0.,1.));
#504=DIRECTION('',(0.,0.,1.));
#505=DIRECTION('',(1.,0.,0.));
#506=DIRECTION('',(0.,0.,1.));
#507=DIRECTION('',(0.,0.,1.));
#508=DIRECTION('',(1.,0.,0.));
#509=DIRECTION('',(0.,0.,-1.));
#510=DIRECTION('',(1.,0.,0.));
#511=DIRECTION('',(0.,0.,-1.));
#512=DIRECTION('',(1.,0.,0.));
#513=DIRECTION('',(0.,0.,1.));
#514=DIRECTION('',(0.,0.,1.));
#515=DIRECTION('',(1.,0.,0.));
#516=DIRECTION('',(0.,0.,-1.));
#517=DIRECTION('',(1.,1.22464679914735E-16,0.));
#518=DIRECTION('',(0.,0.,-1.));
#519=DIRECTION('',(1.,1.22464679914735E-16,0.));
#520=DIRECTION('',(0.,0.,1.));
#521=DIRECTION('',(0.,0.,1.));
#522=DIRECTION('',(1.,0.,0.));
#523=DIRECTION('',(0.,0.,-1.));
#524=DIRECTION('',(-0.499999999999999,0.86602540378444,0.));
#525=DIRECTION('',(0.,0.,-1.));
#526=DIRECTION('',(-0.499999999999999,0.86602540378444,0.));
#527=DIRECTION('',(0.,0.,1.));
#528=DIRECTION('',(1.,0.,0.));
#529=DIRECTION('',(0.,0.,-1.));
#530=DIRECTION('',(1.,0.,0.));
#531=DIRECTION('',(0.,0.,-1.));
#532=DIRECTION('',(1.,1.22464679914735E-16,0.));
#533=DIRECTION('',(0.,0.,1.));
#534=DIRECTION('',(1.,0.,0.));
#535=DIRECTION('',(0.,0.,-1.));
#536=DIRECTION('',(1.,0.,0.));
#537=DIRECTION('',(0.,0.,-1.));
#538=DIRECTION('',(1.,0.,0.));
#539=DIRECTION('',(0.,0.,1.));
#540=DIRECTION('',(1.,0.,0.));
#541=DIRECTION('',(0.,0.,1.));
#542=DIRECTION('',(1.,0.,0.));
#543=DIRECTION('',(0.,0.,1.));
#544=DIRECTION('',(1.,0.,0.));
#545=DIRECTION('',(0.,0.,1.));
#546=DIRECTION('',(1.,0.,0.));
#547=DIRECTION('',(0.,0.,-1.));
#548=DIRECTION('',(-0.500000000000002,-0.866025403784437,0.));
#549=DIRECTION('',(0.,0.,-1.));
#550=DIRECTION('',(-0.500000000000002,-0.866025403784437,0.));
#551=DIRECTION('',(0.,0.,1.));
#552=DIRECTION('',(1.,0.,0.));
#553=DIRECTION('',(0.,0.,1.));
#554=DIRECTION('',(1.,0.,0.));
#555=DIRECTION('',(0.,0.,1.));
#556=DIRECTION('',(1.,0.,0.));
#557=DIRECTION('',(0.,0.,-1.));
#558=DIRECTION('',(-1.,0.,0.));
#559=DIRECTION('',(0.,0.,1.));
#560=DIRECTION('',(1.,0.,0.));
#561=DIRECTION('',(0.,0.,1.));
#562=DIRECTION('',(1.,0.,0.));
#563=DIRECTION('',(0.,0.,1.));
#564=DIRECTION('',(1.,0.,0.));
#565=DIRECTION('',(0.,0.,-1.));
#566=DIRECTION('',(-1.,0.,1.97590994370889E-16));
#567=DIRECTION('',(0.,0.,1.));
#568=DIRECTION('',(1.,0.,0.));
#569=DIRECTION('',(0.,0.,1.));
#570=DIRECTION('',(-1.,0.,0.));
#571=DIRECTION('',(0.,0.,-1.));
#572=DIRECTION('',(-1.,0.,0.));
#573=DIRECTION('',(0.,0.,-1.));
#574=DIRECTION('',(-1.,0.,0.));
#575=CARTESIAN_POINT('',(0.,0.,0.));
#576=CARTESIAN_POINT('',(0.,0.,52.3));
#577=CARTESIAN_POINT('',(24.2,0.,52.3));
#578=CARTESIAN_POINT('',(0.,0.,4.2));
#579=CARTESIAN_POINT('',(-24.2,0.,4.2));
#580=CARTESIAN_POINT('',(0.,0.,55.));
#581=CARTESIAN_POINT('',(-35.2384732794716,-12.8257553747125,0.));
#582=CARTESIAN_POINT('',(-40.4067826937941,-14.7068661630036,0.));
#583=CARTESIAN_POINT('',(-30.0701638651491,-10.9446445864213,0.));
#584=CARTESIAN_POINT('',(-40.4067826937941,-14.7068661630036,-6.));
#585=CARTESIAN_POINT('',(-40.4067826937941,-14.7068661630036,-6.));
#586=CARTESIAN_POINT('',(-35.2384732794716,-12.8257553747125,-6.));
#587=CARTESIAN_POINT('',(-30.0701638651491,-10.9446445864213,-6.));
#588=CARTESIAN_POINT('',(-30.0701638651491,-10.9446445864213,-6.));
#589=CARTESIAN_POINT('',(-35.2384732794716,-12.8257553747125,-6.));
#590=CARTESIAN_POINT('',(0.,0.,0.));
#591=CARTESIAN_POINT('',(-24.5134221798074,-20.5692035099692,0.));
#592=CARTESIAN_POINT('',(0.,0.,-6.));
#593=CARTESIAN_POINT('',(-24.5134221798074,-20.5692035099692,-6.));
#594=CARTESIAN_POINT('',(-24.5134221798074,-20.5692035099692,-6.));
#595=CARTESIAN_POINT('',(0.,0.,-6.));
#596=CARTESIAN_POINT('',(-28.7266666169618,-24.1045353632452,0.));
#597=CARTESIAN_POINT('',(-32.9399110541162,-27.6398672165211,0.));
#598=CARTESIAN_POINT('',(-28.7266666169618,-24.1045353632452,-6.));
#599=CARTESIAN_POINT('',(-32.9399110541162,-27.6398672165211,-6.));
#600=CARTESIAN_POINT('',(-32.9399110541162,-27.6398672165211,-6.));
#601=CARTESIAN_POINT('',(-28.7266666169618,-24.1045353632452,-6.));
#602=CARTESIAN_POINT('',(0.,0.,0.));
#603=CARTESIAN_POINT('',(-7.46687163967793,42.346733379525,0.));
#604=CARTESIAN_POINT('',(7.46687163967812,42.3467333795249,0.));
#605=CARTESIAN_POINT('',(-7.46687163967793,42.346733379525,-6.));
#606=CARTESIAN_POINT('',(-7.46687163967793,42.346733379525,-6.));
#607=CARTESIAN_POINT('',(0.,0.,-6.));
#608=CARTESIAN_POINT('',(7.46687163967812,42.3467333795249,-6.));
#609=CARTESIAN_POINT('',(7.46687163967812,42.3467333795249,-6.));
#610=CARTESIAN_POINT('',(0.,0.,-6.));
#611=CARTESIAN_POINT('',(6.51180666250995,36.9302907379578,0.));
#612=CARTESIAN_POINT('',(5.5567416853418,31.5138480963907,0.));
#613=CARTESIAN_POINT('',(6.51180666250995,36.9302907379578,-6.));
#614=CARTESIAN_POINT('',(5.5567416853418,31.5138480963907,-6.));
#615=CARTESIAN_POINT('',(5.5567416853418,31.5138480963907,-6.));
#616=CARTESIAN_POINT('',(6.51180666250995,36.9302907379578,-6.));
#617=CARTESIAN_POINT('',(0.,0.,0.));
#618=CARTESIAN_POINT('',(-5.55674168534172,31.5138480963907,0.));
#619=CARTESIAN_POINT('',(0.,0.,-6.));
#620=CARTESIAN_POINT('',(-5.55674168534172,31.5138480963907,-6.));
#621=CARTESIAN_POINT('',(-5.55674168534172,31.5138480963907,-6.));
#622=CARTESIAN_POINT('',(0.,0.,-6.));
#623=CARTESIAN_POINT('',(0.,0.,0.));
#624=CARTESIAN_POINT('',(24.5134221798073,-20.5692035099692,0.));
#625=CARTESIAN_POINT('',(30.0701638651491,-10.9446445864214,0.));
#626=CARTESIAN_POINT('',(24.5134221798073,-20.5692035099692,-6.));
#627=CARTESIAN_POINT('',(24.5134221798073,-20.5692035099692,-6.));
#628=CARTESIAN_POINT('',(0.,0.,-6.));
#629=CARTESIAN_POINT('',(30.0701638651491,-10.9446445864214,-6.));
#630=CARTESIAN_POINT('',(30.0701638651491,-10.9446445864214,-6.));
#631=CARTESIAN_POINT('',(0.,0.,-6.));
#632=CARTESIAN_POINT('',(35.2384732794716,-12.8257553747126,0.));
#633=CARTESIAN_POINT('',(40.4067826937941,-14.7068661630038,0.));
#634=CARTESIAN_POINT('',(35.2384732794716,-12.8257553747126,-6.));
#635=CARTESIAN_POINT('',(40.4067826937941,-14.7068661630038,-6.));
#636=CARTESIAN_POINT('',(40.4067826937941,-14.7068661630038,-6.));
#637=CARTESIAN_POINT('',(35.2384732794716,-12.8257553747126,-6.));
#638=CARTESIAN_POINT('',(0.,0.,0.));
#639=CARTESIAN_POINT('',(32.939911054116,-27.6398672165212,0.));
#640=CARTESIAN_POINT('',(0.,0.,-6.));
#641=CARTESIAN_POINT('',(32.939911054116,-27.6398672165212,-6.));
#642=CARTESIAN_POINT('',(32.939911054116,-27.6398672165212,-6.));
#643=CARTESIAN_POINT('',(0.,0.,-6.));
#644=CARTESIAN_POINT('',(-6.51180666250983,36.9302907379578,0.));
#645=CARTESIAN_POINT('',(-6.51180666250983,36.9302907379578,-6.));
#646=CARTESIAN_POINT('',(-6.51180666250983,36.9302907379578,-6.));
#647=CARTESIAN_POINT('',(0.,0.,-4.8));
#648=CARTESIAN_POINT('',(21.2,0.,-4.8));
#649=CARTESIAN_POINT('',(0.,0.,55.));
#650=CARTESIAN_POINT('',(21.2,2.59625121419239E-15,55.));
#651=CARTESIAN_POINT('',(0.,0.,-6.));
#652=CARTESIAN_POINT('',(28.7266666169617,-24.1045353632452,0.));
#653=CARTESIAN_POINT('',(28.7266666169617,-24.1045353632452,-6.));
#654=CARTESIAN_POINT('',(28.7266666169617,-24.1045353632452,-6.));
#655=CARTESIAN_POINT('',(0.,0.,0.));
#656=CARTESIAN_POINT('',(50.,0.,0.));
#657=CARTESIAN_POINT('',(0.,0.,-6.));
#658=CARTESIAN_POINT('',(50.,0.,-6.));
#659=CARTESIAN_POINT('',(0.,0.,-6.));
#660=CARTESIAN_POINT('',(0.,0.,0.));
#661=CARTESIAN_POINT('',(0.,0.,-6.));
#662=CARTESIAN_POINT('',(0.,0.,-6.));
#663=CARTESIAN_POINT('',(0.,0.,-6.));
#664=CARTESIAN_POINT('',(22.4,0.,-6.));
#665=CARTESIAN_POINT('',(14.3633333084808,-12.0522676816226,-6.));
#666=CARTESIAN_POINT('',(0.,0.,0.));
#667=CARTESIAN_POINT('',(-22.9090039152912,0.,0.));
#668=CARTESIAN_POINT('',(14.3633333084808,-12.0522676816226,0.));
#669=CARTESIAN_POINT('',(0.,0.,55.));
#670=CARTESIAN_POINT('',(23.6,0.,55.));
#671=CARTESIAN_POINT('',(0.,0.,55.));
#672=CARTESIAN_POINT('',(0.,0.,55.));
#673=CARTESIAN_POINT('',(0.,0.,-4.8));
#674=CARTESIAN_POINT('',(0.,0.,4.2));
#675=CARTESIAN_POINT('',(-22.9090039152912,0.,4.2));
#676=CARTESIAN_POINT('',(22.9090039152912,0.,4.2));
#677=CARTESIAN_POINT('',(0.,0.,0.));
#678=MECHANICAL_DESIGN_GEOMETRIC_PRESENTATION_REPRESENTATION('',(#32),#679);
#679=(
GEOMETRIC_REPRESENTATION_CONTEXT(3)
GLOBAL_UNCERTAINTY_ASSIGNED_CONTEXT((#680))
GLOBAL_UNIT_ASSIGNED_CONTEXT((#686,#682,#681))
REPRESENTATION_CONTEXT('Einpressflansch_X243','TOP_LEVEL_ASSEMBLY_PART')
);
#680=UNCERTAINTY_MEASURE_WITH_UNIT(LENGTH_MEASURE(2.E-5),#686,
'DISTANCE_ACCURACY_VALUE','Maximum Tolerance applied to model');
#681=(
NAMED_UNIT(*)
SI_UNIT($,.STERADIAN.)
SOLID_ANGLE_UNIT()
);
#682=(
CONVERSION_BASED_UNIT('DEGREE',#684)
NAMED_UNIT(#683)
PLANE_ANGLE_UNIT()
);
#683=DIMENSIONAL_EXPONENTS(0.,0.,0.,0.,0.,0.,0.);
#684=PLANE_ANGLE_MEASURE_WITH_UNIT(PLANE_ANGLE_MEASURE(0.0174532925),#685);
#685=(
NAMED_UNIT(*)
PLANE_ANGLE_UNIT()
SI_UNIT($,.RADIAN.)
);
#686=(
LENGTH_UNIT()
NAMED_UNIT(*)
SI_UNIT(.MILLI.,.METRE.)
);
ENDSEC;
END-ISO-10303-21;
