ISO-10303-21;
HEADER;
/* Generated by software containing ST-Developer
 * from STEP Tools, Inc. (www.steptools.com) 
 */
/* OPTION: using custom schema-name function */

FILE_DESCRIPTION(
/* description */ (''),
/* implementation_level */ '2;1');

FILE_NAME(
/* name */ 'Einpressflansch_X242.stp',
/* time_stamp */ '2017-06-15T10:05:07+02:00',
/* author */ (''),
/* organization */ (''),
/* preprocessor_version */ 'ST-DEVELOPER v16',
/* originating_system */ 'SIEMENS PLM Software NX 11.0',
/* authorisation */ '');

FILE_SCHEMA (('AUTOMOTIVE_DESIGN { 1 0 10303 214 3 1 1 1 }'));
ENDSEC;

DATA;
#10=PROPERTY_DEFINITION_REPRESENTATION(#14,#12);
#11=PROPERTY_DEFINITION_REPRESENTATION(#15,#13);
#12=REPRESENTATION('',(#16),#349);
#13=REPRESENTATION('',(#17),#349);
#14=PROPERTY_DEFINITION('pmi validation property','',#21);
#15=PROPERTY_DEFINITION('pmi validation property','',#21);
#16=VALUE_REPRESENTATION_ITEM('number of annotations',COUNT_MEASURE(0.));
#17=VALUE_REPRESENTATION_ITEM('number of views',COUNT_MEASURE(0.));
#18=SHAPE_REPRESENTATION_RELATIONSHIP('None',
'relationship between Goge2128018Ckwyg-None and Goge2128018Ckwyg-None',
#30,#19);
#19=ADVANCED_BREP_SHAPE_REPRESENTATION('Goge2128018Ckwyg-None',(#40),#349);
#20=SHAPE_DEFINITION_REPRESENTATION(#21,#30);
#21=PRODUCT_DEFINITION_SHAPE('','',#22);
#22=PRODUCT_DEFINITION(' ','',#24,#23);
#23=PRODUCT_DEFINITION_CONTEXT('part definition',#29,'design');
#24=PRODUCT_DEFINITION_FORMATION_WITH_SPECIFIED_SOURCE(' ',' ',#26,
 .NOT_KNOWN.);
#25=PRODUCT_RELATED_PRODUCT_CATEGORY('part','',(#26));
#26=PRODUCT('Goge2128018Ckwyg','Goge2128018Ckwyg',' ',(#27));
#27=PRODUCT_CONTEXT(' ',#29,'mechanical');
#28=APPLICATION_PROTOCOL_DEFINITION('international standard',
'automotive_design',2010,#29);
#29=APPLICATION_CONTEXT(
'core data for automotive mechanical design processes');
#30=SHAPE_REPRESENTATION('Goge2128018Ckwyg-None',(#212),#349);
#31=PRESENTATION_LAYER_ASSIGNMENT('1','Layer 1',(#40));
#32=STYLED_ITEM('',(#33),#40);
#33=PRESENTATION_STYLE_ASSIGNMENT((#34));
#34=SURFACE_STYLE_USAGE(.BOTH.,#35);
#35=SURFACE_SIDE_STYLE('',(#36));
#36=SURFACE_STYLE_FILL_AREA(#37);
#37=FILL_AREA_STYLE('',(#38));
#38=FILL_AREA_STYLE_COLOUR('',#39);
#39=COLOUR_RGB('Medium Steel',0.596063172350652,0.666666666666667,0.686259250782025);
#40=MANIFOLD_SOLID_BREP('',#41);
#41=CLOSED_SHELL('',(#48,#49,#50,#51,#52,#53,#54,#55,#56,#57,#58,#59,#60));
#42=TOROIDAL_SURFACE('',#238,18.05,1.2);
#43=CONICAL_SURFACE('',#221,19.25,12.5288077091515);
#44=PLANE('',#220);
#45=PLANE('',#235);
#46=PLANE('',#237);
#47=PLANE('',#240);
#48=ADVANCED_FACE('',(#68,#69),#61,.T.);
#49=ADVANCED_FACE('',(#70,#71),#62,.F.);
#50=ADVANCED_FACE('',(#72,#73),#44,.T.);
#51=ADVANCED_FACE('',(#74,#75),#43,.T.);
#52=ADVANCED_FACE('',(#76,#77),#63,.F.);
#53=ADVANCED_FACE('',(#78,#79),#64,.F.);
#54=ADVANCED_FACE('',(#80,#81),#65,.T.);
#55=ADVANCED_FACE('',(#82,#83),#66,.F.);
#56=ADVANCED_FACE('',(#84,#85,#86,#87,#88),#45,.F.);
#57=ADVANCED_FACE('',(#89,#90,#91,#92,#93),#46,.T.);
#58=ADVANCED_FACE('',(#94,#95),#42,.T.);
#59=ADVANCED_FACE('',(#96,#97),#47,.F.);
#60=ADVANCED_FACE('',(#98,#99),#67,.T.);
#61=CYLINDRICAL_SURFACE('',#215,19.85);
#62=CYLINDRICAL_SURFACE('',#218,16.85);
#63=CYLINDRICAL_SURFACE('',#224,4.5);
#64=CYLINDRICAL_SURFACE('',#227,4.5);
#65=CYLINDRICAL_SURFACE('',#230,50.);
#66=CYLINDRICAL_SURFACE('',#233,4.5);
#67=CYLINDRICAL_SURFACE('',#241,18.3944092219352);
#68=FACE_BOUND('',#100,.T.);
#69=FACE_BOUND('',#101,.T.);
#70=FACE_BOUND('',#102,.T.);
#71=FACE_BOUND('',#103,.T.);
#72=FACE_BOUND('',#104,.T.);
#73=FACE_BOUND('',#105,.T.);
#74=FACE_BOUND('',#106,.T.);
#75=FACE_BOUND('',#107,.T.);
#76=FACE_BOUND('',#108,.T.);
#77=FACE_BOUND('',#109,.T.);
#78=FACE_BOUND('',#110,.T.);
#79=FACE_BOUND('',#111,.T.);
#80=FACE_BOUND('',#112,.T.);
#81=FACE_BOUND('',#113,.T.);
#82=FACE_BOUND('',#114,.T.);
#83=FACE_BOUND('',#115,.T.);
#84=FACE_BOUND('',#116,.T.);
#85=FACE_BOUND('',#117,.T.);
#86=FACE_BOUND('',#118,.T.);
#87=FACE_BOUND('',#119,.T.);
#88=FACE_BOUND('',#120,.T.);
#89=FACE_BOUND('',#121,.T.);
#90=FACE_BOUND('',#122,.T.);
#91=FACE_BOUND('',#123,.T.);
#92=FACE_BOUND('',#124,.T.);
#93=FACE_BOUND('',#125,.T.);
#94=FACE_BOUND('',#126,.T.);
#95=FACE_BOUND('',#127,.T.);
#96=FACE_BOUND('',#128,.T.);
#97=FACE_BOUND('',#129,.T.);
#98=FACE_BOUND('',#130,.T.);
#99=FACE_BOUND('',#131,.T.);
#100=EDGE_LOOP('',(#132));
#101=EDGE_LOOP('',(#133));
#102=EDGE_LOOP('',(#134));
#103=EDGE_LOOP('',(#135));
#104=EDGE_LOOP('',(#136));
#105=EDGE_LOOP('',(#137));
#106=EDGE_LOOP('',(#138));
#107=EDGE_LOOP('',(#139));
#108=EDGE_LOOP('',(#140));
#109=EDGE_LOOP('',(#141));
#110=EDGE_LOOP('',(#142));
#111=EDGE_LOOP('',(#143));
#112=EDGE_LOOP('',(#144));
#113=EDGE_LOOP('',(#145));
#114=EDGE_LOOP('',(#146));
#115=EDGE_LOOP('',(#147));
#116=EDGE_LOOP('',(#148));
#117=EDGE_LOOP('',(#149));
#118=EDGE_LOOP('',(#150));
#119=EDGE_LOOP('',(#151));
#120=EDGE_LOOP('',(#152));
#121=EDGE_LOOP('',(#153));
#122=EDGE_LOOP('',(#154));
#123=EDGE_LOOP('',(#155));
#124=EDGE_LOOP('',(#156));
#125=EDGE_LOOP('',(#157));
#126=EDGE_LOOP('',(#158));
#127=EDGE_LOOP('',(#159));
#128=EDGE_LOOP('',(#160));
#129=EDGE_LOOP('',(#161));
#130=EDGE_LOOP('',(#162));
#131=EDGE_LOOP('',(#163));
#132=ORIENTED_EDGE('',*,*,#180,.T.);
#133=ORIENTED_EDGE('',*,*,#181,.T.);
#134=ORIENTED_EDGE('',*,*,#182,.F.);
#135=ORIENTED_EDGE('',*,*,#183,.T.);
#136=ORIENTED_EDGE('',*,*,#184,.T.);
#137=ORIENTED_EDGE('',*,*,#182,.T.);
#138=ORIENTED_EDGE('',*,*,#181,.F.);
#139=ORIENTED_EDGE('',*,*,#184,.F.);
#140=ORIENTED_EDGE('',*,*,#185,.F.);
#141=ORIENTED_EDGE('',*,*,#186,.T.);
#142=ORIENTED_EDGE('',*,*,#187,.F.);
#143=ORIENTED_EDGE('',*,*,#188,.T.);
#144=ORIENTED_EDGE('',*,*,#189,.T.);
#145=ORIENTED_EDGE('',*,*,#190,.F.);
#146=ORIENTED_EDGE('',*,*,#191,.F.);
#147=ORIENTED_EDGE('',*,*,#192,.T.);
#148=ORIENTED_EDGE('',*,*,#193,.T.);
#149=ORIENTED_EDGE('',*,*,#189,.F.);
#150=ORIENTED_EDGE('',*,*,#188,.F.);
#151=ORIENTED_EDGE('',*,*,#186,.F.);
#152=ORIENTED_EDGE('',*,*,#192,.F.);
#153=ORIENTED_EDGE('',*,*,#190,.T.);
#154=ORIENTED_EDGE('',*,*,#187,.T.);
#155=ORIENTED_EDGE('',*,*,#185,.T.);
#156=ORIENTED_EDGE('',*,*,#191,.T.);
#157=ORIENTED_EDGE('',*,*,#194,.T.);
#158=ORIENTED_EDGE('',*,*,#183,.F.);
#159=ORIENTED_EDGE('',*,*,#193,.F.);
#160=ORIENTED_EDGE('',*,*,#195,.T.);
#161=ORIENTED_EDGE('',*,*,#180,.F.);
#162=ORIENTED_EDGE('',*,*,#194,.F.);
#163=ORIENTED_EDGE('',*,*,#195,.F.);
#164=VERTEX_POINT('',#304);
#165=VERTEX_POINT('',#306);
#166=VERTEX_POINT('',#309);
#167=VERTEX_POINT('',#311);
#168=VERTEX_POINT('',#314);
#169=VERTEX_POINT('',#318);
#170=VERTEX_POINT('',#320);
#171=VERTEX_POINT('',#323);
#172=VERTEX_POINT('',#325);
#173=VERTEX_POINT('',#328);
#174=VERTEX_POINT('',#330);
#175=VERTEX_POINT('',#333);
#176=VERTEX_POINT('',#335);
#177=VERTEX_POINT('',#338);
#178=VERTEX_POINT('',#341);
#179=VERTEX_POINT('',#345);
#180=EDGE_CURVE('',#164,#164,#196,.T.);
#181=EDGE_CURVE('',#165,#165,#197,.T.);
#182=EDGE_CURVE('',#166,#166,#198,.T.);
#183=EDGE_CURVE('',#167,#167,#199,.T.);
#184=EDGE_CURVE('',#168,#168,#200,.T.);
#185=EDGE_CURVE('',#169,#169,#201,.T.);
#186=EDGE_CURVE('',#170,#170,#202,.T.);
#187=EDGE_CURVE('',#171,#171,#203,.T.);
#188=EDGE_CURVE('',#172,#172,#204,.T.);
#189=EDGE_CURVE('',#173,#173,#205,.T.);
#190=EDGE_CURVE('',#174,#174,#206,.T.);
#191=EDGE_CURVE('',#175,#175,#207,.T.);
#192=EDGE_CURVE('',#176,#176,#208,.T.);
#193=EDGE_CURVE('',#177,#177,#209,.T.);
#194=EDGE_CURVE('',#178,#178,#210,.T.);
#195=EDGE_CURVE('',#179,#179,#211,.T.);
#196=CIRCLE('',#213,19.85);
#197=CIRCLE('',#214,19.85);
#198=CIRCLE('',#216,16.85);
#199=CIRCLE('',#217,16.85);
#200=CIRCLE('',#219,19.25);
#201=CIRCLE('',#222,4.5);
#202=CIRCLE('',#223,4.5);
#203=CIRCLE('',#225,4.5);
#204=CIRCLE('',#226,4.5);
#205=CIRCLE('',#228,50.);
#206=CIRCLE('',#229,50.);
#207=CIRCLE('',#231,4.5);
#208=CIRCLE('',#232,4.5);
#209=CIRCLE('',#234,18.05);
#210=CIRCLE('',#236,18.3944092219352);
#211=CIRCLE('',#239,18.3944092219352);
#212=AXIS2_PLACEMENT_3D('',#302,#242,#243);
#213=AXIS2_PLACEMENT_3D('',#303,#244,#245);
#214=AXIS2_PLACEMENT_3D('',#305,#246,#247);
#215=AXIS2_PLACEMENT_3D('',#307,#248,#249);
#216=AXIS2_PLACEMENT_3D('',#308,#250,#251);
#217=AXIS2_PLACEMENT_3D('',#310,#252,#253);
#218=AXIS2_PLACEMENT_3D('',#312,#254,#255);
#219=AXIS2_PLACEMENT_3D('',#313,#256,#257);
#220=AXIS2_PLACEMENT_3D('',#315,#258,#259);
#221=AXIS2_PLACEMENT_3D('',#316,#260,#261);
#222=AXIS2_PLACEMENT_3D('',#317,#262,#263);
#223=AXIS2_PLACEMENT_3D('',#319,#264,#265);
#224=AXIS2_PLACEMENT_3D('',#321,#266,#267);
#225=AXIS2_PLACEMENT_3D('',#322,#268,#269);
#226=AXIS2_PLACEMENT_3D('',#324,#270,#271);
#227=AXIS2_PLACEMENT_3D('',#326,#272,#273);
#228=AXIS2_PLACEMENT_3D('',#327,#274,#275);
#229=AXIS2_PLACEMENT_3D('',#329,#276,#277);
#230=AXIS2_PLACEMENT_3D('',#331,#278,#279);
#231=AXIS2_PLACEMENT_3D('',#332,#280,#281);
#232=AXIS2_PLACEMENT_3D('',#334,#282,#283);
#233=AXIS2_PLACEMENT_3D('',#336,#284,#285);
#234=AXIS2_PLACEMENT_3D('',#337,#286,#287);
#235=AXIS2_PLACEMENT_3D('',#339,#288,#289);
#236=AXIS2_PLACEMENT_3D('',#340,#290,#291);
#237=AXIS2_PLACEMENT_3D('',#342,#292,#293);
#238=AXIS2_PLACEMENT_3D('',#343,#294,#295);
#239=AXIS2_PLACEMENT_3D('',#344,#296,#297);
#240=AXIS2_PLACEMENT_3D('',#346,#298,#299);
#241=AXIS2_PLACEMENT_3D('',#347,#300,#301);
#242=DIRECTION('',(0.,0.,1.));
#243=DIRECTION('',(1.,0.,0.));
#244=DIRECTION('',(0.,0.,1.));
#245=DIRECTION('',(1.,0.,0.));
#246=DIRECTION('',(0.,0.,-1.));
#247=DIRECTION('',(1.,0.,0.));
#248=DIRECTION('',(0.,0.,-1.));
#249=DIRECTION('',(-1.,0.,0.));
#250=DIRECTION('',(0.,0.,-1.));
#251=DIRECTION('',(1.,1.22464679914735E-16,0.));
#252=DIRECTION('',(0.,0.,-1.));
#253=DIRECTION('',(1.,0.,0.));
#254=DIRECTION('',(0.,0.,-1.));
#255=DIRECTION('',(-1.,0.,0.));
#256=DIRECTION('',(0.,0.,1.));
#257=DIRECTION('',(1.,0.,0.));
#258=DIRECTION('',(0.,0.,1.));
#259=DIRECTION('',(1.,0.,0.));
#260=DIRECTION('',(0.,0.,-1.));
#261=DIRECTION('',(-1.,0.,2.01150496236584E-16));
#262=DIRECTION('',(0.,0.,-1.));
#263=DIRECTION('',(-0.499999999999999,0.866025403784439,0.));
#264=DIRECTION('',(0.,0.,-1.));
#265=DIRECTION('',(-0.499999999999999,0.866025403784439,0.));
#266=DIRECTION('',(0.,0.,1.));
#267=DIRECTION('',(1.,0.,0.));
#268=DIRECTION('',(0.,0.,-1.));
#269=DIRECTION('',(-0.500000000000003,-0.866025403784438,0.));
#270=DIRECTION('',(0.,0.,-1.));
#271=DIRECTION('',(-0.500000000000003,-0.866025403784438,0.));
#272=DIRECTION('',(0.,0.,1.));
#273=DIRECTION('',(1.,0.,0.));
#274=DIRECTION('',(0.,0.,1.));
#275=DIRECTION('',(1.,0.,0.));
#276=DIRECTION('',(0.,0.,1.));
#277=DIRECTION('',(1.,0.,0.));
#278=DIRECTION('',(0.,0.,1.));
#279=DIRECTION('',(1.,0.,0.));
#280=DIRECTION('',(0.,0.,-1.));
#281=DIRECTION('',(0.999999999999999,0.,0.));
#282=DIRECTION('',(0.,0.,-1.));
#283=DIRECTION('',(0.999999999999999,0.,0.));
#284=DIRECTION('',(0.,0.,1.));
#285=DIRECTION('',(0.999999999999999,0.,0.));
#286=DIRECTION('',(0.,0.,1.));
#287=DIRECTION('',(1.,0.,0.));
#288=DIRECTION('',(0.,0.,1.));
#289=DIRECTION('',(1.,0.,0.));
#290=DIRECTION('',(0.,0.,-1.));
#291=DIRECTION('',(-1.,0.,0.));
#292=DIRECTION('',(0.,0.,1.));
#293=DIRECTION('',(1.,0.,0.));
#294=DIRECTION('',(0.,0.,1.));
#295=DIRECTION('',(1.,0.,0.));
#296=DIRECTION('',(0.,0.,1.));
#297=DIRECTION('',(-1.,0.,0.));
#298=DIRECTION('',(0.,0.,1.));
#299=DIRECTION('',(1.,0.,0.));
#300=DIRECTION('',(0.,0.,-1.));
#301=DIRECTION('',(-1.,0.,0.));
#302=CARTESIAN_POINT('',(0.,0.,0.));
#303=CARTESIAN_POINT('',(0.,0.,5.));
#304=CARTESIAN_POINT('',(19.85,0.,5.));
#305=CARTESIAN_POINT('',(0.,0.,52.3));
#306=CARTESIAN_POINT('',(19.85,0.,52.3));
#307=CARTESIAN_POINT('',(0.,0.,55.));
#308=CARTESIAN_POINT('',(0.,0.,55.));
#309=CARTESIAN_POINT('',(16.85,2.06352985656329E-15,55.));
#310=CARTESIAN_POINT('',(0.,0.,-4.8));
#311=CARTESIAN_POINT('',(16.85,0.,-4.8));
#312=CARTESIAN_POINT('',(0.,0.,55.));
#313=CARTESIAN_POINT('',(0.,0.,55.));
#314=CARTESIAN_POINT('',(19.25,0.,55.));
#315=CARTESIAN_POINT('',(0.,0.,55.));
#316=CARTESIAN_POINT('',(0.,0.,55.));
#317=CARTESIAN_POINT('',(6.25382800185288,36.9748513901441,0.));
#318=CARTESIAN_POINT('',(4.00382800185289,40.8719657071741,0.));
#319=CARTESIAN_POINT('',(6.25382800185288,36.9748513901441,-6.));
#320=CARTESIAN_POINT('',(4.00382800185289,40.8719657071741,-6.));
#321=CARTESIAN_POINT('',(6.25382800185288,36.9748513901441,-6.));
#322=CARTESIAN_POINT('',(-35.1480746059456,-13.0714517745689,0.));
#323=CARTESIAN_POINT('',(-37.3980746059456,-16.9685660915989,0.));
#324=CARTESIAN_POINT('',(-35.1480746059456,-13.0714517745689,-6.));
#325=CARTESIAN_POINT('',(-37.3980746059456,-16.9685660915989,-6.));
#326=CARTESIAN_POINT('',(-35.1480746059456,-13.0714517745689,-6.));
#327=CARTESIAN_POINT('',(0.,0.,-6.));
#328=CARTESIAN_POINT('',(50.,0.,-6.));
#329=CARTESIAN_POINT('',(0.,0.,0.));
#330=CARTESIAN_POINT('',(50.,0.,0.));
#331=CARTESIAN_POINT('',(0.,0.,-6.));
#332=CARTESIAN_POINT('',(28.8942466040928,-23.9033996155751,0.));
#333=CARTESIAN_POINT('',(33.3942466040928,-23.9033996155751,0.));
#334=CARTESIAN_POINT('',(28.8942466040928,-23.9033996155751,-6.));
#335=CARTESIAN_POINT('',(33.3942466040928,-23.9033996155751,-6.));
#336=CARTESIAN_POINT('',(28.8942466040928,-23.9033996155751,-6.));
#337=CARTESIAN_POINT('',(0.,0.,-6.));
#338=CARTESIAN_POINT('',(18.05,0.,-6.));
#339=CARTESIAN_POINT('',(-11.7160248686485,-4.35715059152298,-6.));
#340=CARTESIAN_POINT('',(0.,0.,0.));
#341=CARTESIAN_POINT('',(-18.3944092219352,0.,0.));
#342=CARTESIAN_POINT('',(-11.7160248686485,-4.35715059152298,0.));
#343=CARTESIAN_POINT('',(0.,0.,-4.8));
#344=CARTESIAN_POINT('',(0.,0.,5.));
#345=CARTESIAN_POINT('',(-18.3944092219352,0.,5.));
#346=CARTESIAN_POINT('',(-25.3944092219352,0.,5.));
#347=CARTESIAN_POINT('',(0.,0.,0.));
#348=MECHANICAL_DESIGN_GEOMETRIC_PRESENTATION_REPRESENTATION('',(#32),#349);
#349=(
GEOMETRIC_REPRESENTATION_CONTEXT(3)
GLOBAL_UNCERTAINTY_ASSIGNED_CONTEXT((#350))
GLOBAL_UNIT_ASSIGNED_CONTEXT((#356,#352,#351))
REPRESENTATION_CONTEXT('Einpressflansch_X242','TOP_LEVEL_ASSEMBLY_PART')
);
#350=UNCERTAINTY_MEASURE_WITH_UNIT(LENGTH_MEASURE(2.E-5),#356,
'DISTANCE_ACCURACY_VALUE','Maximum Tolerance applied to model');
#351=(
NAMED_UNIT(*)
SI_UNIT($,.STERADIAN.)
SOLID_ANGLE_UNIT()
);
#352=(
CONVERSION_BASED_UNIT('DEGREE',#354)
NAMED_UNIT(#353)
PLANE_ANGLE_UNIT()
);
#353=DIMENSIONAL_EXPONENTS(0.,0.,0.,0.,0.,0.,0.);
#354=PLANE_ANGLE_MEASURE_WITH_UNIT(PLANE_ANGLE_MEASURE(0.0174532925),#355);
#355=(
NAMED_UNIT(*)
PLANE_ANGLE_UNIT()
SI_UNIT($,.RADIAN.)
);
#356=(
LENGTH_UNIT()
NAMED_UNIT(*)
SI_UNIT(.MILLI.,.METRE.)
);
ENDSEC;
END-ISO-10303-21;
