ISO-10303-21;
HEADER;
/* Generated by software containing ST-Developer
 * from STEP Tools, Inc. (www.steptools.com) 
 */
/* OPTION: using custom schema-name function */

FILE_DESCRIPTION(
/* description */ (''),
/* implementation_level */ '2;1');

FILE_NAME(
/* name */ 'Anschraublaschen_X245.stp',
/* time_stamp */ '2017-06-15T10:03:21+02:00',
/* author */ (''),
/* organization */ (''),
/* preprocessor_version */ 'ST-DEVELOPER v16',
/* originating_system */ 'SIEMENS PLM Software NX 11.0',
/* authorisation */ '');

FILE_SCHEMA (('AUTOMOTIVE_DESIGN { 1 0 10303 214 3 1 1 1 }'));
ENDSEC;

DATA;
#10=PROPERTY_DEFINITION_REPRESENTATION(#14,#12);
#11=PROPERTY_DEFINITION_REPRESENTATION(#15,#13);
#12=REPRESENTATION('',(#16),#427);
#13=REPRESENTATION('',(#17),#427);
#14=PROPERTY_DEFINITION('pmi validation property','',#21);
#15=PROPERTY_DEFINITION('pmi validation property','',#21);
#16=VALUE_REPRESENTATION_ITEM('number of annotations',COUNT_MEASURE(0.));
#17=VALUE_REPRESENTATION_ITEM('number of views',COUNT_MEASURE(0.));
#18=SHAPE_REPRESENTATION_RELATIONSHIP('None',
'relationship between Goge2128018Ckwxr-None and Goge2128018Ckwxr-None',
#30,#19);
#19=ADVANCED_BREP_SHAPE_REPRESENTATION('Goge2128018Ckwxr-None',(#40),#427);
#20=SHAPE_DEFINITION_REPRESENTATION(#21,#30);
#21=PRODUCT_DEFINITION_SHAPE('','',#22);
#22=PRODUCT_DEFINITION(' ','',#24,#23);
#23=PRODUCT_DEFINITION_CONTEXT('part definition',#29,'design');
#24=PRODUCT_DEFINITION_FORMATION_WITH_SPECIFIED_SOURCE(' ',' ',#26,
 .NOT_KNOWN.);
#25=PRODUCT_RELATED_PRODUCT_CATEGORY('part','',(#26));
#26=PRODUCT('Goge2128018Ckwxr','Goge2128018Ckwxr',' ',(#27));
#27=PRODUCT_CONTEXT(' ',#29,'mechanical');
#28=APPLICATION_PROTOCOL_DEFINITION('international standard',
'automotive_design',2010,#29);
#29=APPLICATION_CONTEXT(
'core data for automotive mechanical design processes');
#30=SHAPE_REPRESENTATION('Goge2128018Ckwxr-None',(#258),#427);
#31=PRESENTATION_LAYER_ASSIGNMENT('1','Layer 1',(#40));
#32=STYLED_ITEM('',(#33),#40);
#33=PRESENTATION_STYLE_ASSIGNMENT((#34));
#34=SURFACE_STYLE_USAGE(.BOTH.,#35);
#35=SURFACE_SIDE_STYLE('',(#36));
#36=SURFACE_STYLE_FILL_AREA(#37);
#37=FILL_AREA_STYLE('',(#38));
#38=FILL_AREA_STYLE_COLOUR('',#39);
#39=COLOUR_RGB('Medium Steel',0.596063172350652,0.666666666666667,0.686259250782025);
#40=MANIFOLD_SOLID_BREP('',#41);
#41=CLOSED_SHELL('',(#71,#72,#73,#74,#75,#76,#77,#78,#79,#80,#81,#82,#83,
#84,#85,#86));
#42=CONICAL_SURFACE('',#286,6.05,45.);
#43=CONICAL_SURFACE('',#290,13.0851896055702,12.5288077091515);
#44=FACE_OUTER_BOUND('',#128,.T.);
#45=FACE_OUTER_BOUND('',#129,.T.);
#46=FACE_OUTER_BOUND('',#130,.T.);
#47=FACE_OUTER_BOUND('',#131,.T.);
#48=LINE('',#384,#56);
#49=LINE('',#387,#57);
#50=LINE('',#389,#58);
#51=LINE('',#391,#59);
#52=LINE('',#397,#60);
#53=LINE('',#399,#61);
#54=LINE('',#401,#62);
#55=LINE('',#403,#63);
#56=VECTOR('',#315,1.);
#57=VECTOR('',#316,1.);
#58=VECTOR('',#317,1.);
#59=VECTOR('',#318,1.);
#60=VECTOR('',#325,1.);
#61=VECTOR('',#328,1.);
#62=VECTOR('',#329,1.);
#63=VECTOR('',#330,1.);
#64=PLANE('',#266);
#65=PLANE('',#270);
#66=PLANE('',#274);
#67=PLANE('',#278);
#68=PLANE('',#281);
#69=PLANE('',#285);
#70=PLANE('',#288);
#71=ADVANCED_FACE('',(#94,#95),#87,.T.);
#72=ADVANCED_FACE('',(#96,#97),#88,.F.);
#73=ADVANCED_FACE('',(#98,#99),#64,.T.);
#74=ADVANCED_FACE('',(#100,#101),#89,.F.);
#75=ADVANCED_FACE('',(#44),#65,.T.);
#76=ADVANCED_FACE('',(#45),#90,.T.);
#77=ADVANCED_FACE('',(#46),#66,.T.);
#78=ADVANCED_FACE('',(#47),#91,.T.);
#79=ADVANCED_FACE('',(#102,#103,#104),#67,.F.);
#80=ADVANCED_FACE('',(#105,#106,#107),#68,.T.);
#81=ADVANCED_FACE('',(#108,#109),#92,.F.);
#82=ADVANCED_FACE('',(#110,#111),#69,.T.);
#83=ADVANCED_FACE('',(#112,#113),#42,.F.);
#84=ADVANCED_FACE('',(#114,#115),#70,.T.);
#85=ADVANCED_FACE('',(#116,#117),#93,.T.);
#86=ADVANCED_FACE('',(#118,#119),#43,.T.);
#87=CYLINDRICAL_SURFACE('',#261,13.6851896055702);
#88=CYLINDRICAL_SURFACE('',#264,12.);
#89=CYLINDRICAL_SURFACE('',#269,4.15);
#90=CYLINDRICAL_SURFACE('',#273,15.);
#91=CYLINDRICAL_SURFACE('',#277,15.);
#92=CYLINDRICAL_SURFACE('',#283,6.1);
#93=CYLINDRICAL_SURFACE('',#289,13.);
#94=FACE_BOUND('',#120,.T.);
#95=FACE_BOUND('',#121,.T.);
#96=FACE_BOUND('',#122,.T.);
#97=FACE_BOUND('',#123,.T.);
#98=FACE_BOUND('',#124,.T.);
#99=FACE_BOUND('',#125,.T.);
#100=FACE_BOUND('',#126,.T.);
#101=FACE_BOUND('',#127,.T.);
#102=FACE_BOUND('',#132,.T.);
#103=FACE_BOUND('',#133,.T.);
#104=FACE_BOUND('',#134,.T.);
#105=FACE_BOUND('',#135,.T.);
#106=FACE_BOUND('',#136,.T.);
#107=FACE_BOUND('',#137,.T.);
#108=FACE_BOUND('',#138,.T.);
#109=FACE_BOUND('',#139,.T.);
#110=FACE_BOUND('',#140,.T.);
#111=FACE_BOUND('',#141,.T.);
#112=FACE_BOUND('',#142,.T.);
#113=FACE_BOUND('',#143,.T.);
#114=FACE_BOUND('',#144,.T.);
#115=FACE_BOUND('',#145,.T.);
#116=FACE_BOUND('',#146,.T.);
#117=FACE_BOUND('',#147,.T.);
#118=FACE_BOUND('',#148,.T.);
#119=FACE_BOUND('',#149,.T.);
#120=EDGE_LOOP('',(#150));
#121=EDGE_LOOP('',(#151));
#122=EDGE_LOOP('',(#152));
#123=EDGE_LOOP('',(#153));
#124=EDGE_LOOP('',(#154));
#125=EDGE_LOOP('',(#155));
#126=EDGE_LOOP('',(#156));
#127=EDGE_LOOP('',(#157));
#128=EDGE_LOOP('',(#158,#159,#160,#161));
#129=EDGE_LOOP('',(#162,#163,#164,#165));
#130=EDGE_LOOP('',(#166,#167,#168,#169));
#131=EDGE_LOOP('',(#170,#171,#172,#173));
#132=EDGE_LOOP('',(#174,#175,#176,#177));
#133=EDGE_LOOP('',(#178));
#134=EDGE_LOOP('',(#179));
#135=EDGE_LOOP('',(#180,#181,#182,#183));
#136=EDGE_LOOP('',(#184));
#137=EDGE_LOOP('',(#185));
#138=EDGE_LOOP('',(#186));
#139=EDGE_LOOP('',(#187));
#140=EDGE_LOOP('',(#188));
#141=EDGE_LOOP('',(#189));
#142=EDGE_LOOP('',(#190));
#143=EDGE_LOOP('',(#191));
#144=EDGE_LOOP('',(#192));
#145=EDGE_LOOP('',(#193));
#146=EDGE_LOOP('',(#194));
#147=EDGE_LOOP('',(#195));
#148=EDGE_LOOP('',(#196));
#149=EDGE_LOOP('',(#197));
#150=ORIENTED_EDGE('',*,*,#218,.T.);
#151=ORIENTED_EDGE('',*,*,#219,.F.);
#152=ORIENTED_EDGE('',*,*,#220,.F.);
#153=ORIENTED_EDGE('',*,*,#221,.F.);
#154=ORIENTED_EDGE('',*,*,#222,.T.);
#155=ORIENTED_EDGE('',*,*,#220,.T.);
#156=ORIENTED_EDGE('',*,*,#223,.T.);
#157=ORIENTED_EDGE('',*,*,#224,.F.);
#158=ORIENTED_EDGE('',*,*,#225,.F.);
#159=ORIENTED_EDGE('',*,*,#226,.F.);
#160=ORIENTED_EDGE('',*,*,#227,.T.);
#161=ORIENTED_EDGE('',*,*,#228,.T.);
#162=ORIENTED_EDGE('',*,*,#229,.F.);
#163=ORIENTED_EDGE('',*,*,#228,.F.);
#164=ORIENTED_EDGE('',*,*,#230,.T.);
#165=ORIENTED_EDGE('',*,*,#231,.T.);
#166=ORIENTED_EDGE('',*,*,#232,.F.);
#167=ORIENTED_EDGE('',*,*,#231,.F.);
#168=ORIENTED_EDGE('',*,*,#233,.T.);
#169=ORIENTED_EDGE('',*,*,#234,.T.);
#170=ORIENTED_EDGE('',*,*,#235,.F.);
#171=ORIENTED_EDGE('',*,*,#234,.F.);
#172=ORIENTED_EDGE('',*,*,#236,.T.);
#173=ORIENTED_EDGE('',*,*,#226,.T.);
#174=ORIENTED_EDGE('',*,*,#236,.F.);
#175=ORIENTED_EDGE('',*,*,#233,.F.);
#176=ORIENTED_EDGE('',*,*,#230,.F.);
#177=ORIENTED_EDGE('',*,*,#227,.F.);
#178=ORIENTED_EDGE('',*,*,#221,.T.);
#179=ORIENTED_EDGE('',*,*,#224,.T.);
#180=ORIENTED_EDGE('',*,*,#235,.T.);
#181=ORIENTED_EDGE('',*,*,#225,.T.);
#182=ORIENTED_EDGE('',*,*,#229,.T.);
#183=ORIENTED_EDGE('',*,*,#232,.T.);
#184=ORIENTED_EDGE('',*,*,#237,.F.);
#185=ORIENTED_EDGE('',*,*,#238,.T.);
#186=ORIENTED_EDGE('',*,*,#239,.T.);
#187=ORIENTED_EDGE('',*,*,#237,.T.);
#188=ORIENTED_EDGE('',*,*,#240,.T.);
#189=ORIENTED_EDGE('',*,*,#239,.F.);
#190=ORIENTED_EDGE('',*,*,#223,.F.);
#191=ORIENTED_EDGE('',*,*,#240,.F.);
#192=ORIENTED_EDGE('',*,*,#241,.T.);
#193=ORIENTED_EDGE('',*,*,#219,.T.);
#194=ORIENTED_EDGE('',*,*,#241,.F.);
#195=ORIENTED_EDGE('',*,*,#238,.F.);
#196=ORIENTED_EDGE('',*,*,#218,.F.);
#197=ORIENTED_EDGE('',*,*,#222,.F.);
#198=VERTEX_POINT('',#367);
#199=VERTEX_POINT('',#369);
#200=VERTEX_POINT('',#372);
#201=VERTEX_POINT('',#374);
#202=VERTEX_POINT('',#377);
#203=VERTEX_POINT('',#380);
#204=VERTEX_POINT('',#382);
#205=VERTEX_POINT('',#385);
#206=VERTEX_POINT('',#386);
#207=VERTEX_POINT('',#388);
#208=VERTEX_POINT('',#390);
#209=VERTEX_POINT('',#394);
#210=VERTEX_POINT('',#396);
#211=VERTEX_POINT('',#400);
#212=VERTEX_POINT('',#402);
#213=VERTEX_POINT('',#410);
#214=VERTEX_POINT('',#412);
#215=VERTEX_POINT('',#415);
#216=VERTEX_POINT('',#418);
#217=VERTEX_POINT('',#422);
#218=EDGE_CURVE('',#198,#198,#242,.T.);
#219=EDGE_CURVE('',#199,#199,#243,.T.);
#220=EDGE_CURVE('',#200,#200,#244,.T.);
#221=EDGE_CURVE('',#201,#201,#245,.T.);
#222=EDGE_CURVE('',#202,#202,#246,.T.);
#223=EDGE_CURVE('',#203,#203,#247,.T.);
#224=EDGE_CURVE('',#204,#204,#248,.T.);
#225=EDGE_CURVE('',#205,#206,#48,.T.);
#226=EDGE_CURVE('',#207,#205,#49,.T.);
#227=EDGE_CURVE('',#207,#208,#50,.T.);
#228=EDGE_CURVE('',#208,#206,#51,.T.);
#229=EDGE_CURVE('',#206,#209,#249,.T.);
#230=EDGE_CURVE('',#208,#210,#250,.T.);
#231=EDGE_CURVE('',#210,#209,#52,.T.);
#232=EDGE_CURVE('',#209,#211,#53,.T.);
#233=EDGE_CURVE('',#210,#212,#54,.T.);
#234=EDGE_CURVE('',#212,#211,#55,.T.);
#235=EDGE_CURVE('',#211,#205,#251,.T.);
#236=EDGE_CURVE('',#212,#207,#252,.T.);
#237=EDGE_CURVE('',#213,#213,#253,.T.);
#238=EDGE_CURVE('',#214,#214,#254,.T.);
#239=EDGE_CURVE('',#215,#215,#255,.T.);
#240=EDGE_CURVE('',#216,#216,#256,.T.);
#241=EDGE_CURVE('',#217,#217,#257,.T.);
#242=CIRCLE('',#259,13.6851896055702);
#243=CIRCLE('',#260,13.6851896055702);
#244=CIRCLE('',#262,12.);
#245=CIRCLE('',#263,12.);
#246=CIRCLE('',#265,13.0851896055702);
#247=CIRCLE('',#267,4.15);
#248=CIRCLE('',#268,4.15);
#249=CIRCLE('',#271,15.);
#250=CIRCLE('',#272,15.);
#251=CIRCLE('',#275,15.);
#252=CIRCLE('',#276,15.);
#253=CIRCLE('',#279,6.1);
#254=CIRCLE('',#280,13.);
#255=CIRCLE('',#282,6.1);
#256=CIRCLE('',#284,6.05);
#257=CIRCLE('',#287,13.);
#258=AXIS2_PLACEMENT_3D('',#365,#291,#292);
#259=AXIS2_PLACEMENT_3D('',#366,#293,#294);
#260=AXIS2_PLACEMENT_3D('',#368,#295,#296);
#261=AXIS2_PLACEMENT_3D('',#370,#297,#298);
#262=AXIS2_PLACEMENT_3D('',#371,#299,#300);
#263=AXIS2_PLACEMENT_3D('',#373,#301,#302);
#264=AXIS2_PLACEMENT_3D('',#375,#303,#304);
#265=AXIS2_PLACEMENT_3D('',#376,#305,#306);
#266=AXIS2_PLACEMENT_3D('',#378,#307,#308);
#267=AXIS2_PLACEMENT_3D('',#379,#309,#310);
#268=AXIS2_PLACEMENT_3D('',#381,#311,#312);
#269=AXIS2_PLACEMENT_3D('',#383,#313,#314);
#270=AXIS2_PLACEMENT_3D('',#392,#319,#320);
#271=AXIS2_PLACEMENT_3D('',#393,#321,#322);
#272=AXIS2_PLACEMENT_3D('',#395,#323,#324);
#273=AXIS2_PLACEMENT_3D('',#398,#326,#327);
#274=AXIS2_PLACEMENT_3D('',#404,#331,#332);
#275=AXIS2_PLACEMENT_3D('',#405,#333,#334);
#276=AXIS2_PLACEMENT_3D('',#406,#335,#336);
#277=AXIS2_PLACEMENT_3D('',#407,#337,#338);
#278=AXIS2_PLACEMENT_3D('',#408,#339,#340);
#279=AXIS2_PLACEMENT_3D('',#409,#341,#342);
#280=AXIS2_PLACEMENT_3D('',#411,#343,#344);
#281=AXIS2_PLACEMENT_3D('',#413,#345,#346);
#282=AXIS2_PLACEMENT_3D('',#414,#347,#348);
#283=AXIS2_PLACEMENT_3D('',#416,#349,#350);
#284=AXIS2_PLACEMENT_3D('',#417,#351,#352);
#285=AXIS2_PLACEMENT_3D('',#419,#353,#354);
#286=AXIS2_PLACEMENT_3D('',#420,#355,#356);
#287=AXIS2_PLACEMENT_3D('',#421,#357,#358);
#288=AXIS2_PLACEMENT_3D('',#423,#359,#360);
#289=AXIS2_PLACEMENT_3D('',#424,#361,#362);
#290=AXIS2_PLACEMENT_3D('',#425,#363,#364);
#291=DIRECTION('',(0.,0.,1.));
#292=DIRECTION('',(1.,0.,0.));
#293=DIRECTION('',(0.,0.,-1.));
#294=DIRECTION('',(1.,0.,0.));
#295=DIRECTION('',(0.,0.,-1.));
#296=DIRECTION('',(-1.,0.,0.));
#297=DIRECTION('',(0.,0.,-1.));
#298=DIRECTION('',(-1.,0.,0.));
#299=DIRECTION('',(0.,0.,-1.));
#300=DIRECTION('',(1.,0.,0.));
#301=DIRECTION('',(0.,0.,1.));
#302=DIRECTION('',(1.,0.,0.));
#303=DIRECTION('',(0.,0.,-1.));
#304=DIRECTION('',(-1.,0.,0.));
#305=DIRECTION('',(0.,0.,1.));
#306=DIRECTION('',(1.,0.,0.));
#307=DIRECTION('',(0.,0.,1.));
#308=DIRECTION('',(1.,0.,0.));
#309=DIRECTION('',(0.,0.,1.));
#310=DIRECTION('',(1.,0.,0.));
#311=DIRECTION('',(0.,0.,1.));
#312=DIRECTION('',(1.,0.,0.));
#313=DIRECTION('',(0.,0.,1.));
#314=DIRECTION('',(1.,0.,0.));
#315=DIRECTION('',(1.,2.74807679362662E-16,0.));
#316=DIRECTION('',(0.,0.,1.));
#317=DIRECTION('',(1.,2.74807679362662E-16,0.));
#318=DIRECTION('',(0.,0.,1.));
#319=DIRECTION('',(2.74807679362662E-16,-1.,0.));
#320=DIRECTION('',(1.,2.77555756156289E-16,0.));
#321=DIRECTION('',(0.,0.,1.));
#322=DIRECTION('',(1.,0.,0.));
#323=DIRECTION('',(0.,0.,1.));
#324=DIRECTION('',(1.,0.,0.));
#325=DIRECTION('',(0.,0.,1.));
#326=DIRECTION('',(0.,0.,1.));
#327=DIRECTION('',(1.,0.,0.));
#328=DIRECTION('',(-1.,3.43509599203328E-17,0.));
#329=DIRECTION('',(-1.,3.43509599203328E-17,0.));
#330=DIRECTION('',(0.,0.,1.));
#331=DIRECTION('',(3.43509599203328E-17,1.,0.));
#332=DIRECTION('',(-1.,3.46944695195361E-17,0.));
#333=DIRECTION('',(0.,0.,1.));
#334=DIRECTION('',(1.,0.,0.));
#335=DIRECTION('',(0.,0.,1.));
#336=DIRECTION('',(1.,0.,0.));
#337=DIRECTION('',(0.,0.,1.));
#338=DIRECTION('',(1.,0.,0.));
#339=DIRECTION('',(0.,0.,1.));
#340=DIRECTION('',(1.,0.,0.));
#341=DIRECTION('',(0.,0.,1.));
#342=DIRECTION('',(1.,0.,0.));
#343=DIRECTION('',(0.,0.,-1.));
#344=DIRECTION('',(-1.,0.,0.));
#345=DIRECTION('',(0.,0.,1.));
#346=DIRECTION('',(1.,0.,0.));
#347=DIRECTION('',(0.,0.,-1.));
#348=DIRECTION('',(1.,0.,0.));
#349=DIRECTION('',(0.,0.,1.));
#350=DIRECTION('',(1.,0.,0.));
#351=DIRECTION('',(0.,0.,-1.));
#352=DIRECTION('',(1.,0.,0.));
#353=DIRECTION('',(0.,0.,1.));
#354=DIRECTION('',(1.,0.,0.));
#355=DIRECTION('',(0.,0.,1.));
#356=DIRECTION('',(1.,0.,-2.24157896602539E-17));
#357=DIRECTION('',(0.,0.,1.));
#358=DIRECTION('',(-1.,0.,0.));
#359=DIRECTION('',(0.,0.,-1.));
#360=DIRECTION('',(-1.,0.,0.));
#361=DIRECTION('',(0.,0.,-1.));
#362=DIRECTION('',(-1.,0.,0.));
#363=DIRECTION('',(0.,0.,-1.));
#364=DIRECTION('',(-1.,0.,7.37215824398406E-17));
#365=CARTESIAN_POINT('',(0.,0.,0.));
#366=CARTESIAN_POINT('',(-105.75,-30.,17.3));
#367=CARTESIAN_POINT('',(-92.0648103944298,-30.,17.3));
#368=CARTESIAN_POINT('',(-105.75,-30.,2.8));
#369=CARTESIAN_POINT('',(-119.43518960557,-30.,2.8));
#370=CARTESIAN_POINT('',(-105.75,-30.,20.));
#371=CARTESIAN_POINT('',(-105.75,-30.,20.));
#372=CARTESIAN_POINT('',(-93.75,-30.,20.));
#373=CARTESIAN_POINT('',(-105.75,-30.,-5.));
#374=CARTESIAN_POINT('',(-93.75,-30.,-5.));
#375=CARTESIAN_POINT('',(-105.75,-30.,20.));
#376=CARTESIAN_POINT('',(-105.75,-30.,20.));
#377=CARTESIAN_POINT('',(-92.6648103944298,-30.,20.));
#378=CARTESIAN_POINT('',(-105.75,-30.,20.));
#379=CARTESIAN_POINT('',(-55.25,-30.,-2.7));
#380=CARTESIAN_POINT('',(-51.1,-30.,-2.7));
#381=CARTESIAN_POINT('',(-55.25,-30.,-5.));
#382=CARTESIAN_POINT('',(-51.1,-30.,-5.));
#383=CARTESIAN_POINT('',(-55.25,-30.,-5.));
#384=CARTESIAN_POINT('',(-105.75,-45.,0.));
#385=CARTESIAN_POINT('',(-105.75,-45.,0.));
#386=CARTESIAN_POINT('',(-55.25,-45.,0.));
#387=CARTESIAN_POINT('',(-105.75,-45.,-5.));
#388=CARTESIAN_POINT('',(-105.75,-45.,-5.));
#389=CARTESIAN_POINT('',(-105.75,-45.,-5.));
#390=CARTESIAN_POINT('',(-55.25,-45.,-5.));
#391=CARTESIAN_POINT('',(-55.25,-45.,-5.));
#392=CARTESIAN_POINT('',(-105.75,-45.,-5.));
#393=CARTESIAN_POINT('',(-55.25,-30.,0.));
#394=CARTESIAN_POINT('',(-55.25,-15.,0.));
#395=CARTESIAN_POINT('',(-55.25,-30.,-5.));
#396=CARTESIAN_POINT('',(-55.25,-15.,-5.));
#397=CARTESIAN_POINT('',(-55.25,-15.,-5.));
#398=CARTESIAN_POINT('',(-55.25,-30.,-5.));
#399=CARTESIAN_POINT('',(-55.25,-15.,0.));
#400=CARTESIAN_POINT('',(-105.75,-15.,0.));
#401=CARTESIAN_POINT('',(-55.25,-15.,-5.));
#402=CARTESIAN_POINT('',(-105.75,-15.,-5.));
#403=CARTESIAN_POINT('',(-105.75,-15.,-5.));
#404=CARTESIAN_POINT('',(-55.25,-15.,-5.));
#405=CARTESIAN_POINT('',(-105.75,-30.,0.));
#406=CARTESIAN_POINT('',(-105.75,-30.,-5.));
#407=CARTESIAN_POINT('',(-105.75,-30.,-5.));
#408=CARTESIAN_POINT('',(-105.75,-30.,-5.));
#409=CARTESIAN_POINT('',(-55.25,-30.,0.));
#410=CARTESIAN_POINT('',(-49.15,-30.,0.));
#411=CARTESIAN_POINT('',(-105.75,-30.,0.));
#412=CARTESIAN_POINT('',(-118.75,-30.,0.));
#413=CARTESIAN_POINT('',(-105.75,-30.,0.));
#414=CARTESIAN_POINT('',(-55.25,-30.,-0.8));
#415=CARTESIAN_POINT('',(-49.15,-30.,-0.8));
#416=CARTESIAN_POINT('',(-55.25,-30.,-0.8));
#417=CARTESIAN_POINT('',(-55.25,-30.,-0.8));
#418=CARTESIAN_POINT('',(-49.2,-30.,-0.8));
#419=CARTESIAN_POINT('',(-55.25,-30.,-0.8));
#420=CARTESIAN_POINT('',(-55.25,-30.,-0.8));
#421=CARTESIAN_POINT('',(-105.75,-30.,2.8));
#422=CARTESIAN_POINT('',(-118.75,-30.,2.8));
#423=CARTESIAN_POINT('',(-118.75,-30.,2.8));
#424=CARTESIAN_POINT('',(-105.75,-30.,20.));
#425=CARTESIAN_POINT('',(-105.75,-30.,20.));
#426=MECHANICAL_DESIGN_GEOMETRIC_PRESENTATION_REPRESENTATION('',(#32),#427);
#427=(
GEOMETRIC_REPRESENTATION_CONTEXT(3)
GLOBAL_UNCERTAINTY_ASSIGNED_CONTEXT((#428))
GLOBAL_UNIT_ASSIGNED_CONTEXT((#434,#430,#429))
REPRESENTATION_CONTEXT('Anschraublaschen_X245',
'TOP_LEVEL_ASSEMBLY_PART')
);
#428=UNCERTAINTY_MEASURE_WITH_UNIT(LENGTH_MEASURE(2.E-5),#434,
'DISTANCE_ACCURACY_VALUE','Maximum Tolerance applied to model');
#429=(
NAMED_UNIT(*)
SI_UNIT($,.STERADIAN.)
SOLID_ANGLE_UNIT()
);
#430=(
CONVERSION_BASED_UNIT('DEGREE',#432)
NAMED_UNIT(#431)
PLANE_ANGLE_UNIT()
);
#431=DIMENSIONAL_EXPONENTS(0.,0.,0.,0.,0.,0.,0.);
#432=PLANE_ANGLE_MEASURE_WITH_UNIT(PLANE_ANGLE_MEASURE(0.0174532925),#433);
#433=(
NAMED_UNIT(*)
PLANE_ANGLE_UNIT()
SI_UNIT($,.RADIAN.)
);
#434=(
LENGTH_UNIT()
NAMED_UNIT(*)
SI_UNIT(.MILLI.,.METRE.)
);
ENDSEC;
END-ISO-10303-21;
