ISO-10303-21;
HEADER;
/* Generated by software containing ST-Developer
 * from STEP Tools, Inc. (www.steptools.com) 
 */
/* OPTION: using custom schema-name function */

FILE_DESCRIPTION(
/* description */ (''),
/* implementation_level */ '2;1');

FILE_NAME(
/* name */ 'Bodenanker_geschliefen_X248.stp',
/* time_stamp */ '2017-06-15T09:52:12+02:00',
/* author */ (''),
/* organization */ (''),
/* preprocessor_version */ 'ST-DEVELOPER v16',
/* originating_system */ 'SIEMENS PLM Software NX 11.0',
/* authorisation */ '');

FILE_SCHEMA (('AUTOMOTIVE_DESIGN { 1 0 10303 214 3 1 1 1 }'));
ENDSEC;

DATA;
#10=PROPERTY_DEFINITION_REPRESENTATION(#14,#12);
#11=PROPERTY_DEFINITION_REPRESENTATION(#15,#13);
#12=REPRESENTATION('',(#16),#449);
#13=REPRESENTATION('',(#17),#449);
#14=PROPERTY_DEFINITION('pmi validation property','',#21);
#15=PROPERTY_DEFINITION('pmi validation property','',#21);
#16=VALUE_REPRESENTATION_ITEM('number of annotations',COUNT_MEASURE(0.));
#17=VALUE_REPRESENTATION_ITEM('number of views',COUNT_MEASURE(0.));
#18=SHAPE_REPRESENTATION_RELATIONSHIP('None',
'relationship between Goge1D3CD327kvmj-None and Goge1D3CD327kvmj-None',
#30,#19);
#19=ADVANCED_BREP_SHAPE_REPRESENTATION('Goge1D3CD327kvmj-None',(#40),#449);
#20=SHAPE_DEFINITION_REPRESENTATION(#21,#30);
#21=PRODUCT_DEFINITION_SHAPE('','',#22);
#22=PRODUCT_DEFINITION(' ','',#24,#23);
#23=PRODUCT_DEFINITION_CONTEXT('part definition',#29,'design');
#24=PRODUCT_DEFINITION_FORMATION_WITH_SPECIFIED_SOURCE(' ',' ',#26,
 .NOT_KNOWN.);
#25=PRODUCT_RELATED_PRODUCT_CATEGORY('part','',(#26));
#26=PRODUCT('Goge1D3CD327kvmj','Goge1D3CD327kvmj',' ',(#27));
#27=PRODUCT_CONTEXT(' ',#29,'mechanical');
#28=APPLICATION_PROTOCOL_DEFINITION('international standard',
'automotive_design',2010,#29);
#29=APPLICATION_CONTEXT(
'core data for automotive mechanical design processes');
#30=SHAPE_REPRESENTATION('Goge1D3CD327kvmj-None',(#232),#449);
#31=PRESENTATION_LAYER_ASSIGNMENT('1','Layer 1',(#40));
#32=STYLED_ITEM('',(#33),#40);
#33=PRESENTATION_STYLE_ASSIGNMENT((#34));
#34=SURFACE_STYLE_USAGE(.BOTH.,#35);
#35=SURFACE_SIDE_STYLE('',(#36));
#36=SURFACE_STYLE_FILL_AREA(#37);
#37=FILL_AREA_STYLE('',(#38));
#38=FILL_AREA_STYLE_COLOUR('',#39);
#39=COLOUR_RGB('Medium Steel',0.596063172350652,0.666666666666667,0.686259250782025);
#40=MANIFOLD_SOLID_BREP('',#41);
#41=CLOSED_SHELL('',(#51,#52,#53,#54,#55,#56,#57,#58,#59,#60,#61,#62,#63,
#64));
#42=TOROIDAL_SURFACE('',#261,15.15,2.);
#43=CONICAL_SURFACE('',#258,3.95,45.);
#44=CONICAL_SURFACE('',#259,3.95,45.);
#45=CONICAL_SURFACE('',#260,3.95,45.);
#46=PLANE('',#248);
#47=PLANE('',#253);
#48=PLANE('',#257);
#49=B_SPLINE_CURVE_WITH_KNOTS('',3,(#336,#337,#338,#339,#340,#341,#342,
#343,#344,#345,#346,#347,#348,#349,#350,#351,#352,#353,#354,#355,#356,#357,
#358,#359,#360,#361,#362,#363,#364,#365,#366,#367,#368,#369,#370,#371,#372,
#373),.UNSPECIFIED.,.T.,.F.,(2,2,2,2,2,2,2,2,2,2,2,2,2,2,2,2,2,2,2,2,2),
(-0.0625000000000003,0.,0.0624999999999994,0.124999999999999,0.187499999999998,
0.249999999999998,0.281249999999998,0.312499999999998,0.374999999999998,
0.437499999999998,0.468749999999998,0.499999999999998,0.562499999999998,
0.624999999999999,0.687499999999999,0.749999999999999,0.812499999999999,
0.874999999999999,0.9375,1.,1.0625),.UNSPECIFIED.);
#50=B_SPLINE_CURVE_WITH_KNOTS('',3,(#400,#401,#402,#403,#404,#405,#406,
#407,#408,#409,#410,#411,#412,#413,#414,#415,#416,#417,#418,#419,#420,#421,
#422,#423,#424,#425,#426,#427,#428,#429,#430,#431,#432,#433,#434,#435),
 .UNSPECIFIED.,.T.,.F.,(2,2,2,2,2,2,2,2,2,2,2,2,2,2,2,2,2,2,2,2),(-0.0624999999999999,
0.,0.0625000000000001,0.125,0.1875,0.250000000000001,0.312500000000001,
0.375000000000001,0.437500000000001,0.468750000000001,0.500000000000001,
0.562500000000001,0.625,0.6875,0.75,0.8125,0.875,0.9375,1.,1.0625),
 .UNSPECIFIED.);
#51=ADVANCED_FACE('',(#72,#73),#65,.F.);
#52=ADVANCED_FACE('',(#74,#75),#66,.F.);
#53=ADVANCED_FACE('',(#76,#77,#78),#67,.F.);
#54=ADVANCED_FACE('',(#79,#80),#68,.T.);
#55=ADVANCED_FACE('',(#81,#82),#69,.F.);
#56=ADVANCED_FACE('',(#83,#84,#85,#86,#87),#46,.F.);
#57=ADVANCED_FACE('',(#88,#89,#90,#91,#92),#47,.T.);
#58=ADVANCED_FACE('',(#93,#94,#95),#70,.T.);
#59=ADVANCED_FACE('',(#96,#97),#48,.T.);
#60=ADVANCED_FACE('',(#98,#99),#43,.F.);
#61=ADVANCED_FACE('',(#100,#101),#44,.F.);
#62=ADVANCED_FACE('',(#102,#103),#45,.F.);
#63=ADVANCED_FACE('',(#104,#105),#42,.F.);
#64=ADVANCED_FACE('',(#106,#107),#71,.F.);
#65=CYLINDRICAL_SURFACE('',#235,2.75);
#66=CYLINDRICAL_SURFACE('',#238,2.75);
#67=CYLINDRICAL_SURFACE('',#241,10.65);
#68=CYLINDRICAL_SURFACE('',#244,30.);
#69=CYLINDRICAL_SURFACE('',#247,2.75);
#70=CYLINDRICAL_SURFACE('',#256,13.15);
#71=CYLINDRICAL_SURFACE('',#262,1.30222056752234);
#72=FACE_BOUND('',#108,.T.);
#73=FACE_BOUND('',#109,.T.);
#74=FACE_BOUND('',#110,.T.);
#75=FACE_BOUND('',#111,.T.);
#76=FACE_BOUND('',#112,.T.);
#77=FACE_BOUND('',#113,.T.);
#78=FACE_BOUND('',#114,.T.);
#79=FACE_BOUND('',#115,.T.);
#80=FACE_BOUND('',#116,.T.);
#81=FACE_BOUND('',#117,.T.);
#82=FACE_BOUND('',#118,.T.);
#83=FACE_BOUND('',#119,.T.);
#84=FACE_BOUND('',#120,.T.);
#85=FACE_BOUND('',#121,.T.);
#86=FACE_BOUND('',#122,.T.);
#87=FACE_BOUND('',#123,.T.);
#88=FACE_BOUND('',#124,.T.);
#89=FACE_BOUND('',#125,.T.);
#90=FACE_BOUND('',#126,.T.);
#91=FACE_BOUND('',#127,.T.);
#92=FACE_BOUND('',#128,.T.);
#93=FACE_BOUND('',#129,.T.);
#94=FACE_BOUND('',#130,.T.);
#95=FACE_BOUND('',#131,.T.);
#96=FACE_BOUND('',#132,.T.);
#97=FACE_BOUND('',#133,.T.);
#98=FACE_BOUND('',#134,.T.);
#99=FACE_BOUND('',#135,.T.);
#100=FACE_BOUND('',#136,.T.);
#101=FACE_BOUND('',#137,.T.);
#102=FACE_BOUND('',#138,.T.);
#103=FACE_BOUND('',#139,.T.);
#104=FACE_BOUND('',#140,.T.);
#105=FACE_BOUND('',#141,.T.);
#106=FACE_BOUND('',#142,.T.);
#107=FACE_BOUND('',#143,.T.);
#108=EDGE_LOOP('',(#144));
#109=EDGE_LOOP('',(#145));
#110=EDGE_LOOP('',(#146));
#111=EDGE_LOOP('',(#147));
#112=EDGE_LOOP('',(#148));
#113=EDGE_LOOP('',(#149));
#114=EDGE_LOOP('',(#150));
#115=EDGE_LOOP('',(#151));
#116=EDGE_LOOP('',(#152));
#117=EDGE_LOOP('',(#153));
#118=EDGE_LOOP('',(#154));
#119=EDGE_LOOP('',(#155));
#120=EDGE_LOOP('',(#156));
#121=EDGE_LOOP('',(#157));
#122=EDGE_LOOP('',(#158));
#123=EDGE_LOOP('',(#159));
#124=EDGE_LOOP('',(#160));
#125=EDGE_LOOP('',(#161));
#126=EDGE_LOOP('',(#162));
#127=EDGE_LOOP('',(#163));
#128=EDGE_LOOP('',(#164));
#129=EDGE_LOOP('',(#165));
#130=EDGE_LOOP('',(#166));
#131=EDGE_LOOP('',(#167));
#132=EDGE_LOOP('',(#168));
#133=EDGE_LOOP('',(#169));
#134=EDGE_LOOP('',(#170));
#135=EDGE_LOOP('',(#171));
#136=EDGE_LOOP('',(#172));
#137=EDGE_LOOP('',(#173));
#138=EDGE_LOOP('',(#174));
#139=EDGE_LOOP('',(#175));
#140=EDGE_LOOP('',(#176));
#141=EDGE_LOOP('',(#177));
#142=EDGE_LOOP('',(#178));
#143=EDGE_LOOP('',(#179));
#144=ORIENTED_EDGE('',*,*,#198,.T.);
#145=ORIENTED_EDGE('',*,*,#199,.T.);
#146=ORIENTED_EDGE('',*,*,#200,.T.);
#147=ORIENTED_EDGE('',*,*,#201,.T.);
#148=ORIENTED_EDGE('',*,*,#202,.T.);
#149=ORIENTED_EDGE('',*,*,#203,.F.);
#150=ORIENTED_EDGE('',*,*,#204,.F.);
#151=ORIENTED_EDGE('',*,*,#205,.T.);
#152=ORIENTED_EDGE('',*,*,#206,.F.);
#153=ORIENTED_EDGE('',*,*,#207,.T.);
#154=ORIENTED_EDGE('',*,*,#208,.T.);
#155=ORIENTED_EDGE('',*,*,#205,.F.);
#156=ORIENTED_EDGE('',*,*,#201,.F.);
#157=ORIENTED_EDGE('',*,*,#199,.F.);
#158=ORIENTED_EDGE('',*,*,#208,.F.);
#159=ORIENTED_EDGE('',*,*,#203,.T.);
#160=ORIENTED_EDGE('',*,*,#209,.T.);
#161=ORIENTED_EDGE('',*,*,#210,.T.);
#162=ORIENTED_EDGE('',*,*,#211,.T.);
#163=ORIENTED_EDGE('',*,*,#212,.T.);
#164=ORIENTED_EDGE('',*,*,#206,.T.);
#165=ORIENTED_EDGE('',*,*,#213,.F.);
#166=ORIENTED_EDGE('',*,*,#214,.T.);
#167=ORIENTED_EDGE('',*,*,#215,.F.);
#168=ORIENTED_EDGE('',*,*,#215,.T.);
#169=ORIENTED_EDGE('',*,*,#204,.T.);
#170=ORIENTED_EDGE('',*,*,#207,.F.);
#171=ORIENTED_EDGE('',*,*,#210,.F.);
#172=ORIENTED_EDGE('',*,*,#198,.F.);
#173=ORIENTED_EDGE('',*,*,#211,.F.);
#174=ORIENTED_EDGE('',*,*,#200,.F.);
#175=ORIENTED_EDGE('',*,*,#212,.F.);
#176=ORIENTED_EDGE('',*,*,#209,.F.);
#177=ORIENTED_EDGE('',*,*,#214,.F.);
#178=ORIENTED_EDGE('',*,*,#213,.T.);
#179=ORIENTED_EDGE('',*,*,#202,.F.);
#180=VERTEX_POINT('',#327);
#181=VERTEX_POINT('',#329);
#182=VERTEX_POINT('',#332);
#183=VERTEX_POINT('',#334);
#184=VERTEX_POINT('',#374);
#185=VERTEX_POINT('',#376);
#186=VERTEX_POINT('',#378);
#187=VERTEX_POINT('',#381);
#188=VERTEX_POINT('',#383);
#189=VERTEX_POINT('',#386);
#190=VERTEX_POINT('',#388);
#191=VERTEX_POINT('',#392);
#192=VERTEX_POINT('',#394);
#193=VERTEX_POINT('',#396);
#194=VERTEX_POINT('',#398);
#195=VERTEX_POINT('',#436);
#196=VERTEX_POINT('',#438);
#197=VERTEX_POINT('',#440);
#198=EDGE_CURVE('',#180,#180,#216,.T.);
#199=EDGE_CURVE('',#181,#181,#217,.T.);
#200=EDGE_CURVE('',#182,#182,#218,.T.);
#201=EDGE_CURVE('',#183,#183,#219,.T.);
#202=EDGE_CURVE('',#184,#184,#49,.T.);
#203=EDGE_CURVE('',#185,#185,#220,.T.);
#204=EDGE_CURVE('',#186,#186,#221,.T.);
#205=EDGE_CURVE('',#187,#187,#222,.T.);
#206=EDGE_CURVE('',#188,#188,#223,.T.);
#207=EDGE_CURVE('',#189,#189,#224,.T.);
#208=EDGE_CURVE('',#190,#190,#225,.T.);
#209=EDGE_CURVE('',#191,#191,#226,.T.);
#210=EDGE_CURVE('',#192,#192,#227,.T.);
#211=EDGE_CURVE('',#193,#193,#228,.T.);
#212=EDGE_CURVE('',#194,#194,#229,.T.);
#213=EDGE_CURVE('',#195,#195,#50,.T.);
#214=EDGE_CURVE('',#196,#196,#230,.T.);
#215=EDGE_CURVE('',#197,#197,#231,.T.);
#216=CIRCLE('',#233,2.75);
#217=CIRCLE('',#234,2.75);
#218=CIRCLE('',#236,2.75);
#219=CIRCLE('',#237,2.75);
#220=CIRCLE('',#239,10.65);
#221=CIRCLE('',#240,10.65);
#222=CIRCLE('',#242,30.);
#223=CIRCLE('',#243,30.);
#224=CIRCLE('',#245,2.75);
#225=CIRCLE('',#246,2.75);
#226=CIRCLE('',#249,15.15);
#227=CIRCLE('',#250,3.95);
#228=CIRCLE('',#251,3.95);
#229=CIRCLE('',#252,3.95);
#230=CIRCLE('',#254,13.15);
#231=CIRCLE('',#255,13.15);
#232=AXIS2_PLACEMENT_3D('',#325,#263,#264);
#233=AXIS2_PLACEMENT_3D('',#326,#265,#266);
#234=AXIS2_PLACEMENT_3D('',#328,#267,#268);
#235=AXIS2_PLACEMENT_3D('',#330,#269,#270);
#236=AXIS2_PLACEMENT_3D('',#331,#271,#272);
#237=AXIS2_PLACEMENT_3D('',#333,#273,#274);
#238=AXIS2_PLACEMENT_3D('',#335,#275,#276);
#239=AXIS2_PLACEMENT_3D('',#375,#277,#278);
#240=AXIS2_PLACEMENT_3D('',#377,#279,#280);
#241=AXIS2_PLACEMENT_3D('',#379,#281,#282);
#242=AXIS2_PLACEMENT_3D('',#380,#283,#284);
#243=AXIS2_PLACEMENT_3D('',#382,#285,#286);
#244=AXIS2_PLACEMENT_3D('',#384,#287,#288);
#245=AXIS2_PLACEMENT_3D('',#385,#289,#290);
#246=AXIS2_PLACEMENT_3D('',#387,#291,#292);
#247=AXIS2_PLACEMENT_3D('',#389,#293,#294);
#248=AXIS2_PLACEMENT_3D('',#390,#295,#296);
#249=AXIS2_PLACEMENT_3D('',#391,#297,#298);
#250=AXIS2_PLACEMENT_3D('',#393,#299,#300);
#251=AXIS2_PLACEMENT_3D('',#395,#301,#302);
#252=AXIS2_PLACEMENT_3D('',#397,#303,#304);
#253=AXIS2_PLACEMENT_3D('',#399,#305,#306);
#254=AXIS2_PLACEMENT_3D('',#437,#307,#308);
#255=AXIS2_PLACEMENT_3D('',#439,#309,#310);
#256=AXIS2_PLACEMENT_3D('',#441,#311,#312);
#257=AXIS2_PLACEMENT_3D('',#442,#313,#314);
#258=AXIS2_PLACEMENT_3D('',#443,#315,#316);
#259=AXIS2_PLACEMENT_3D('',#444,#317,#318);
#260=AXIS2_PLACEMENT_3D('',#445,#319,#320);
#261=AXIS2_PLACEMENT_3D('',#446,#321,#322);
#262=AXIS2_PLACEMENT_3D('',#447,#323,#324);
#263=DIRECTION('',(0.,0.,1.));
#264=DIRECTION('',(1.,0.,0.));
#265=DIRECTION('',(0.,0.,1.));
#266=DIRECTION('',(1.,0.,0.));
#267=DIRECTION('',(0.,0.,-1.));
#268=DIRECTION('',(1.,0.,0.));
#269=DIRECTION('',(0.,0.,1.));
#270=DIRECTION('',(1.,0.,0.));
#271=DIRECTION('',(0.,0.,1.));
#272=DIRECTION('',(1.,0.,0.));
#273=DIRECTION('',(0.,0.,-1.));
#274=DIRECTION('',(-0.500000000000002,-0.866025403784437,0.));
#275=DIRECTION('',(0.,0.,1.));
#276=DIRECTION('',(1.,0.,0.));
#277=DIRECTION('',(0.,0.,1.));
#278=DIRECTION('',(1.,0.,0.));
#279=DIRECTION('',(0.,0.,-1.));
#280=DIRECTION('',(1.,1.22464679914735E-16,0.));
#281=DIRECTION('',(0.,0.,1.));
#282=DIRECTION('',(1.,0.,0.));
#283=DIRECTION('',(0.,0.,1.));
#284=DIRECTION('',(1.,0.,0.));
#285=DIRECTION('',(0.,0.,1.));
#286=DIRECTION('',(1.,0.,0.));
#287=DIRECTION('',(0.,0.,1.));
#288=DIRECTION('',(1.,0.,0.));
#289=DIRECTION('',(0.,0.,1.));
#290=DIRECTION('',(1.,0.,0.));
#291=DIRECTION('',(0.,0.,-1.));
#292=DIRECTION('',(-0.499999999999998,0.866025403784439,0.));
#293=DIRECTION('',(0.,0.,1.));
#294=DIRECTION('',(1.,0.,0.));
#295=DIRECTION('',(0.,0.,1.));
#296=DIRECTION('',(1.,0.,0.));
#297=DIRECTION('',(0.,0.,-1.));
#298=DIRECTION('',(1.,0.,0.));
#299=DIRECTION('',(0.,0.,-1.));
#300=DIRECTION('',(1.,0.,0.));
#301=DIRECTION('',(0.,0.,-1.));
#302=DIRECTION('',(1.,0.,0.));
#303=DIRECTION('',(0.,0.,-1.));
#304=DIRECTION('',(1.,0.,0.));
#305=DIRECTION('',(0.,0.,1.));
#306=DIRECTION('',(1.,0.,0.));
#307=DIRECTION('',(0.,0.,1.));
#308=DIRECTION('',(1.,0.,0.));
#309=DIRECTION('',(0.,0.,1.));
#310=DIRECTION('',(1.,0.,0.));
#311=DIRECTION('',(0.,0.,1.));
#312=DIRECTION('',(1.,0.,0.));
#313=DIRECTION('',(0.,0.,1.));
#314=DIRECTION('',(1.,0.,0.));
#315=DIRECTION('',(0.,0.,1.));
#316=DIRECTION('',(1.,0.,0.));
#317=DIRECTION('',(0.,0.,1.));
#318=DIRECTION('',(1.,0.,0.));
#319=DIRECTION('',(0.,0.,1.));
#320=DIRECTION('',(1.,0.,0.));
#321=DIRECTION('',(0.,0.,1.));
#322=DIRECTION('',(1.,0.,0.));
#323=DIRECTION('',(0.,1.,0.));
#324=DIRECTION('',(0.,0.,1.));
#325=CARTESIAN_POINT('',(0.,0.,0.));
#326=CARTESIAN_POINT('',(-0.221164397447678,-21.9988882971231,-1.2));
#327=CARTESIAN_POINT('',(2.52883560255232,-21.9988882971231,-1.2));
#328=CARTESIAN_POINT('',(-0.221164397447678,-21.9988882971231,-2.5));
#329=CARTESIAN_POINT('',(2.52883560255232,-21.9988882971231,-2.5));
#330=CARTESIAN_POINT('',(-0.221164397447678,-21.9988882971231,-2.5));
#331=CARTESIAN_POINT('',(-18.941013921601,11.190978135164,-1.2));
#332=CARTESIAN_POINT('',(-16.191013921601,11.190978135164,-1.2));
#333=CARTESIAN_POINT('',(-18.941013921601,11.190978135164,-2.5));
#334=CARTESIAN_POINT('',(-20.316013921601,8.80940827475681,-2.5));
#335=CARTESIAN_POINT('',(-18.941013921601,11.190978135164,-2.5));
#336=CARTESIAN_POINT('',(-0.172234345977186,10.65,12.0522205675223));
#337=CARTESIAN_POINT('',(0.172234345977184,10.65,12.0522205675223));
#338=CARTESIAN_POINT('',(0.341231292721101,10.6457020942699,12.0182558011887));
#339=CARTESIAN_POINT('',(0.656554672654519,10.6309147224917,11.8874741905627));
#340=CARTESIAN_POINT('',(0.800913827841994,10.62052468193,11.7907303955128));
#341=CARTESIAN_POINT('',(1.04090553455482,10.5996944836748,11.5506861956509));
#342=CARTESIAN_POINT('',(1.13790064034771,10.5892378336601,11.405532297072));
#343=CARTESIAN_POINT('',(1.2678424788749,10.5744669470325,11.0922220164872));
#344=CARTESIAN_POINT('',(1.30212607191724,10.5700978094746,10.9207480220532));
#345=CARTESIAN_POINT('',(1.30226751492731,10.5700803838865,10.6657092948534));
#346=CARTESIAN_POINT('',(1.29379680780315,10.5711338215402,10.5793456037594));
#347=CARTESIAN_POINT('',(1.26054507040724,10.5751504281624,10.4122734415094));
#348=CARTESIAN_POINT('',(1.2359430682461,10.5780916703873,10.3310610449535));
#349=CARTESIAN_POINT('',(1.13804534515947,10.589224117593,10.0944254146703));
#350=CARTESIAN_POINT('',(1.04262166342933,10.5995424993501,9.95109971310047));
#351=CARTESIAN_POINT('',(0.799722946913241,10.6206310705513,9.70800920846646));
#352=CARTESIAN_POINT('',(0.656509701447003,10.630917218625,9.61250315311148));
#353=CARTESIAN_POINT('',(0.420045514777017,10.6420058372402,9.51443470971049));
#354=CARTESIAN_POINT('',(0.338878502024109,10.6449348601804,9.48976531592501));
#355=CARTESIAN_POINT('',(0.171871855002702,10.6489406460021,9.45636552166478));
#356=CARTESIAN_POINT('',(0.085508545257184,10.6499960976169,9.44781134748802));
#357=CARTESIAN_POINT('',(-0.169554809554698,10.6500077713035,9.44771587612609));
#358=CARTESIAN_POINT('',(-0.341044219986016,10.6456947753561,9.48183295201982));
#359=CARTESIAN_POINT('',(-0.654569979581801,10.631023777222,9.61153745630393));
#360=CARTESIAN_POINT('',(-0.79977305878573,10.6206124900044,9.70838456875716));
#361=CARTESIAN_POINT('',(-1.04009011977297,10.5997763726952,9.94824430472037));
#362=CARTESIAN_POINT('',(-1.13689238482846,10.5893496563465,10.0924332874361));
#363=CARTESIAN_POINT('',(-1.26796461764915,10.5744558331593,10.4076785070393));
#364=CARTESIAN_POINT('',(-1.30206305031536,10.5701055736458,10.5765795360674));
#365=CARTESIAN_POINT('',(-1.30237700300413,10.5700668951082,10.9210467373355));
#366=CARTESIAN_POINT('',(-1.26855813297546,10.5743828323399,11.090100808134));
#367=CARTESIAN_POINT('',(-1.13806715264295,10.5892216511743,11.405523800107));
#368=CARTESIAN_POINT('',(-1.04143702802042,10.5996412746055,11.5499924799418));
#369=CARTESIAN_POINT('',(-0.801622330195301,10.6204702284496,11.7901830084305));
#370=CARTESIAN_POINT('',(-0.656547027627889,10.6308994702427,11.8873158157805));
#371=CARTESIAN_POINT('',(-0.34334814706231,10.6456183284863,12.017538289055));
#372=CARTESIAN_POINT('',(-0.172234345977186,10.65,12.0522205675223));
#373=CARTESIAN_POINT('',(0.172234345977184,10.65,12.0522205675223));
#374=CARTESIAN_POINT('',(3.26580227132748E-16,10.65,12.0522205675223));
#375=CARTESIAN_POINT('',(0.,0.,-2.5));
#376=CARTESIAN_POINT('',(10.65,0.,-2.5));
#377=CARTESIAN_POINT('',(0.,0.,17.5));
#378=CARTESIAN_POINT('',(10.65,1.30424884109193E-15,17.5));
#379=CARTESIAN_POINT('',(0.,0.,-2.5));
#380=CARTESIAN_POINT('',(0.,0.,-2.5));
#381=CARTESIAN_POINT('',(30.,0.,-2.5));
#382=CARTESIAN_POINT('',(0.,0.,0.));
#383=CARTESIAN_POINT('',(30.,0.,0.));
#384=CARTESIAN_POINT('',(0.,0.,-2.5));
#385=CARTESIAN_POINT('',(19.1621783190487,10.8079101619592,-1.2));
#386=CARTESIAN_POINT('',(21.9121783190487,10.8079101619592,-1.2));
#387=CARTESIAN_POINT('',(19.1621783190487,10.8079101619592,-2.5));
#388=CARTESIAN_POINT('',(17.7871783190487,13.1894800223664,-2.5));
#389=CARTESIAN_POINT('',(19.1621783190487,10.8079101619592,-2.5));
#390=CARTESIAN_POINT('',(-6.31367130720032,3.73032604505467,-2.5));
#391=CARTESIAN_POINT('',(0.,0.,0.));
#392=CARTESIAN_POINT('',(15.15,0.,0.));
#393=CARTESIAN_POINT('',(19.1621783190487,10.8079101619592,0.));
#394=CARTESIAN_POINT('',(23.1121783190487,10.8079101619592,0.));
#395=CARTESIAN_POINT('',(-0.221164397447678,-21.9988882971231,0.));
#396=CARTESIAN_POINT('',(3.72883560255232,-21.9988882971231,0.));
#397=CARTESIAN_POINT('',(-18.941013921601,11.190978135164,0.));
#398=CARTESIAN_POINT('',(-14.991013921601,11.190978135164,0.));
#399=CARTESIAN_POINT('',(-6.31367130720032,3.73032604505467,0.));
#400=CARTESIAN_POINT('',(-0.172174840609178,13.15,12.0522205675223));
#401=CARTESIAN_POINT('',(0.172174840609178,13.15,12.0522205675223));
#402=CARTESIAN_POINT('',(0.341116885368896,13.146521845938,12.0182877883733));
#403=CARTESIAN_POINT('',(0.656467825658534,13.1345516622793,11.8875256645438));
#404=CARTESIAN_POINT('',(0.800861187983271,13.1261419481861,11.7907813371262));
#405=CARTESIAN_POINT('',(1.04094506383692,13.1092873360996,11.5506483673884));
#406=CARTESIAN_POINT('',(1.13794953029209,13.1008330471829,11.4054498196918));
#407=CARTESIAN_POINT('',(1.26787339625886,13.0888980710643,11.0921120440513));
#408=CARTESIAN_POINT('',(1.30212750944342,13.0853721367739,10.9206765380353));
#409=CARTESIAN_POINT('',(1.30231323686301,13.0853536536771,10.5807464488514));
#410=CARTESIAN_POINT('',(1.26858916882588,13.0888300868858,10.4100116094329));
#411=CARTESIAN_POINT('',(1.13811947570224,13.1008196530468,10.0945653014907));
#412=CARTESIAN_POINT('',(1.04273494819603,13.109158820877,9.95122303327389));
#413=CARTESIAN_POINT('',(0.799684918348611,13.1262273785933,9.707961206995));
#414=CARTESIAN_POINT('',(0.656487080540742,13.1345509795518,9.61248170400323));
#415=CARTESIAN_POINT('',(0.41993898268693,13.1435298695275,9.51439656611048));
#416=CARTESIAN_POINT('',(0.338770878061763,13.1459006657757,9.48973868056917));
#417=CARTESIAN_POINT('',(0.171829030461361,13.1491423601145,9.45636207331148));
#418=CARTESIAN_POINT('',(0.0854854724057869,13.1499969000673,9.4478107360211));
#419=CARTESIAN_POINT('',(-0.169536369512878,13.1500061737817,9.44771708878784));
#420=CARTESIAN_POINT('',(-0.340960831852498,13.1465149105404,9.48181179923418));
#421=CARTESIAN_POINT('',(-0.654478475516128,13.1346399458457,9.61148626424391));
#422=CARTESIAN_POINT('',(-0.799757722742626,13.1262103602219,9.70837135879006));
#423=CARTESIAN_POINT('',(-1.04008934211138,13.1093563913836,9.94824143178781));
#424=CARTESIAN_POINT('',(-1.13696067653185,13.1009215924887,10.0925707773831));
#425=CARTESIAN_POINT('',(-1.26795653924294,13.0888927097409,10.4076858499543));
#426=CARTESIAN_POINT('',(-1.30205595932663,13.0853792572455,10.5767006982958));
#427=CARTESIAN_POINT('',(-1.30238399237678,13.0853466122823,10.9208165846452));
#428=CARTESIAN_POINT('',(-1.2686263544494,13.0888266303465,11.0898914555567));
#429=CARTESIAN_POINT('',(-1.13809794800407,13.10082167069,11.4054937753427));
#430=CARTESIAN_POINT('',(-1.04151590693783,13.1092414412412,11.5499121806619));
#431=CARTESIAN_POINT('',(-0.801553379637843,13.1260991436432,11.7902533637374));
#432=CARTESIAN_POINT('',(-0.6564569387363,13.1345394850825,11.8873691379474));
#433=CARTESIAN_POINT('',(-0.343230452325743,13.1464541247518,12.0175713490635));
#434=CARTESIAN_POINT('',(-0.172174840609178,13.15,12.0522205675223));
#435=CARTESIAN_POINT('',(0.172174840609178,13.15,12.0522205675223));
#436=CARTESIAN_POINT('',(2.15115353169402E-16,13.15,12.0522205675223));
#437=CARTESIAN_POINT('',(0.,0.,2.));
#438=CARTESIAN_POINT('',(13.15,0.,2.));
#439=CARTESIAN_POINT('',(0.,0.,17.5));
#440=CARTESIAN_POINT('',(13.15,0.,17.5));
#441=CARTESIAN_POINT('',(0.,0.,-2.5));
#442=CARTESIAN_POINT('',(0.,0.,17.5));
#443=CARTESIAN_POINT('',(19.1621783190487,10.8079101619592,0.));
#444=CARTESIAN_POINT('',(-0.221164397447678,-21.9988882971231,0.));
#445=CARTESIAN_POINT('',(-18.941013921601,11.190978135164,0.));
#446=CARTESIAN_POINT('',(0.,0.,2.));
#447=CARTESIAN_POINT('',(0.,-2.5,10.75));
#448=MECHANICAL_DESIGN_GEOMETRIC_PRESENTATION_REPRESENTATION('',(#32),#449);
#449=(
GEOMETRIC_REPRESENTATION_CONTEXT(3)
GLOBAL_UNCERTAINTY_ASSIGNED_CONTEXT((#450))
GLOBAL_UNIT_ASSIGNED_CONTEXT((#456,#452,#451))
REPRESENTATION_CONTEXT('Bodenanker_geschliefen_X248',
'TOP_LEVEL_ASSEMBLY_PART')
);
#450=UNCERTAINTY_MEASURE_WITH_UNIT(LENGTH_MEASURE(0.00208),#456,
'DISTANCE_ACCURACY_VALUE','Maximum Tolerance applied to model');
#451=(
NAMED_UNIT(*)
SI_UNIT($,.STERADIAN.)
SOLID_ANGLE_UNIT()
);
#452=(
CONVERSION_BASED_UNIT('DEGREE',#454)
NAMED_UNIT(#453)
PLANE_ANGLE_UNIT()
);
#453=DIMENSIONAL_EXPONENTS(0.,0.,0.,0.,0.,0.,0.);
#454=PLANE_ANGLE_MEASURE_WITH_UNIT(PLANE_ANGLE_MEASURE(0.0174532925),#455);
#455=(
NAMED_UNIT(*)
PLANE_ANGLE_UNIT()
SI_UNIT($,.RADIAN.)
);
#456=(
LENGTH_UNIT()
NAMED_UNIT(*)
SI_UNIT(.MILLI.,.METRE.)
);
ENDSEC;
END-ISO-10303-21;
