ISO-10303-21;
HEADER;
/* Generated by software containing ST-Developer
 * from STEP Tools, Inc. (www.steptools.com) 
 */
/* OPTION: using custom schema-name function */

FILE_DESCRIPTION(
/* description */ (''),
/* implementation_level */ '2;1');

FILE_NAME(
/* name */ 'Wandanker_geschlieffen_X249.stp',
/* time_stamp */ '2017-06-15T09:58:07+02:00',
/* author */ (''),
/* organization */ (''),
/* preprocessor_version */ 'ST-DEVELOPER v16',
/* originating_system */ 'SIEMENS PLM Software NX 11.0',
/* authorisation */ '');

FILE_SCHEMA (('AUTOMOTIVE_DESIGN { 1 0 10303 214 3 1 1 1 }'));
ENDSEC;

DATA;
#10=PROPERTY_DEFINITION_REPRESENTATION(#14,#12);
#11=PROPERTY_DEFINITION_REPRESENTATION(#15,#13);
#12=REPRESENTATION('',(#16),#635);
#13=REPRESENTATION('',(#17),#635);
#14=PROPERTY_DEFINITION('pmi validation property','',#21);
#15=PROPERTY_DEFINITION('pmi validation property','',#21);
#16=VALUE_REPRESENTATION_ITEM('number of annotations',COUNT_MEASURE(0.));
#17=VALUE_REPRESENTATION_ITEM('number of views',COUNT_MEASURE(0.));
#18=SHAPE_REPRESENTATION_RELATIONSHIP('None',
'relationship between Goge1D3CD327kvoy-None and Goge1D3CD327kvoy-None',
#30,#19);
#19=ADVANCED_BREP_SHAPE_REPRESENTATION('Goge1D3CD327kvoy-None',(#40),#635);
#20=SHAPE_DEFINITION_REPRESENTATION(#21,#30);
#21=PRODUCT_DEFINITION_SHAPE('','',#22);
#22=PRODUCT_DEFINITION(' ','',#24,#23);
#23=PRODUCT_DEFINITION_CONTEXT('part definition',#29,'design');
#24=PRODUCT_DEFINITION_FORMATION_WITH_SPECIFIED_SOURCE(' ',' ',#26,
 .NOT_KNOWN.);
#25=PRODUCT_RELATED_PRODUCT_CATEGORY('part','',(#26));
#26=PRODUCT('Goge1D3CD327kvoy','Goge1D3CD327kvoy',' ',(#27));
#27=PRODUCT_CONTEXT(' ',#29,'mechanical');
#28=APPLICATION_PROTOCOL_DEFINITION('international standard',
'automotive_design',2010,#29);
#29=APPLICATION_CONTEXT(
'core data for automotive mechanical design processes');
#30=SHAPE_REPRESENTATION('Goge1D3CD327kvoy-None',(#382),#635);
#31=PRESENTATION_LAYER_ASSIGNMENT('1','Layer 1',(#40));
#32=STYLED_ITEM('',(#33),#40);
#33=PRESENTATION_STYLE_ASSIGNMENT((#34));
#34=SURFACE_STYLE_USAGE(.BOTH.,#35);
#35=SURFACE_SIDE_STYLE('',(#36));
#36=SURFACE_STYLE_FILL_AREA(#37);
#37=FILL_AREA_STYLE('',(#38));
#38=FILL_AREA_STYLE_COLOUR('',#39);
#39=COLOUR_RGB('Medium Steel',0.596063172350652,0.666666666666667,0.686259250782025);
#40=MANIFOLD_SOLID_BREP('',#41);
#41=CLOSED_SHELL('',(#94,#95,#96,#97,#98,#99,#100,#101,#102,#103,#104,#105,
#106,#107,#108,#109,#110,#111,#112,#113,#114,#115));
#42=CONICAL_SURFACE('',#418,4.35,45.);
#43=CONICAL_SURFACE('',#419,3.25,45.);
#44=CONICAL_SURFACE('',#420,4.35,45.);
#45=CONICAL_SURFACE('',#421,3.25,45.);
#46=FACE_OUTER_BOUND('',#170,.T.);
#47=FACE_OUTER_BOUND('',#171,.T.);
#48=FACE_OUTER_BOUND('',#172,.T.);
#49=FACE_OUTER_BOUND('',#177,.T.);
#50=FACE_OUTER_BOUND('',#196,.T.);
#51=FACE_OUTER_BOUND('',#197,.T.);
#52=FACE_OUTER_BOUND('',#198,.T.);
#53=FACE_OUTER_BOUND('',#199,.T.);
#54=PLANE('',#396);
#55=PLANE('',#399);
#56=PLANE('',#408);
#57=PLANE('',#414);
#58=PLANE('',#417);
#59=PLANE('',#424);
#60=PLANE('',#427);
#61=PLANE('',#428);
#62=LINE('',#558,#78);
#63=LINE('',#562,#79);
#64=LINE('',#566,#80);
#65=LINE('',#570,#81);
#66=LINE('',#575,#82);
#67=LINE('',#576,#83);
#68=LINE('',#578,#84);
#69=LINE('',#580,#85);
#70=LINE('',#584,#86);
#71=LINE('',#596,#87);
#72=LINE('',#617,#88);
#73=LINE('',#621,#89);
#74=LINE('',#623,#90);
#75=LINE('',#625,#91);
#76=LINE('',#627,#92);
#77=LINE('',#631,#93);
#78=VECTOR('',#451,1.);
#79=VECTOR('',#454,1.);
#80=VECTOR('',#457,1.);
#81=VECTOR('',#460,1.);
#82=VECTOR('',#465,1.);
#83=VECTOR('',#466,1.);
#84=VECTOR('',#469,1.);
#85=VECTOR('',#470,1.);
#86=VECTOR('',#475,1.);
#87=VECTOR('',#490,1.);
#88=VECTOR('',#519,1.);
#89=VECTOR('',#522,1.);
#90=VECTOR('',#525,1.);
#91=VECTOR('',#526,1.);
#92=VECTOR('',#529,1.);
#93=VECTOR('',#534,1.);
#94=ADVANCED_FACE('',(#126,#127),#116,.F.);
#95=ADVANCED_FACE('',(#128,#129),#117,.F.);
#96=ADVANCED_FACE('',(#130,#131),#118,.F.);
#97=ADVANCED_FACE('',(#132,#133),#54,.F.);
#98=ADVANCED_FACE('',(#46),#119,.T.);
#99=ADVANCED_FACE('',(#47),#55,.T.);
#100=ADVANCED_FACE('',(#48),#120,.T.);
#101=ADVANCED_FACE('',(#134,#135),#121,.F.);
#102=ADVANCED_FACE('',(#136,#137),#122,.F.);
#103=ADVANCED_FACE('',(#49),#56,.T.);
#104=ADVANCED_FACE('',(#138,#139,#140,#141,#142,#143),#57,.T.);
#105=ADVANCED_FACE('',(#144,#145),#123,.T.);
#106=ADVANCED_FACE('',(#146,#147),#58,.T.);
#107=ADVANCED_FACE('',(#148,#149),#42,.F.);
#108=ADVANCED_FACE('',(#150,#151),#43,.F.);
#109=ADVANCED_FACE('',(#152,#153),#44,.F.);
#110=ADVANCED_FACE('',(#154,#155),#45,.F.);
#111=ADVANCED_FACE('',(#50),#124,.F.);
#112=ADVANCED_FACE('',(#51),#59,.F.);
#113=ADVANCED_FACE('',(#52),#125,.F.);
#114=ADVANCED_FACE('',(#53),#60,.F.);
#115=ADVANCED_FACE('',(#156,#157,#158,#159,#160,#161),#61,.T.);
#116=CYLINDRICAL_SURFACE('',#385,3.25);
#117=CYLINDRICAL_SURFACE('',#388,21.2);
#118=CYLINDRICAL_SURFACE('',#391,3.25);
#119=CYLINDRICAL_SURFACE('',#398,42.5);
#120=CYLINDRICAL_SURFACE('',#401,42.5);
#121=CYLINDRICAL_SURFACE('',#404,3.25);
#122=CYLINDRICAL_SURFACE('',#407,3.25);
#123=CYLINDRICAL_SURFACE('',#416,23.7);
#124=CYLINDRICAL_SURFACE('',#423,40.);
#125=CYLINDRICAL_SURFACE('',#426,40.);
#126=FACE_BOUND('',#162,.T.);
#127=FACE_BOUND('',#163,.T.);
#128=FACE_BOUND('',#164,.T.);
#129=FACE_BOUND('',#165,.T.);
#130=FACE_BOUND('',#166,.T.);
#131=FACE_BOUND('',#167,.T.);
#132=FACE_BOUND('',#168,.T.);
#133=FACE_BOUND('',#169,.T.);
#134=FACE_BOUND('',#173,.T.);
#135=FACE_BOUND('',#174,.T.);
#136=FACE_BOUND('',#175,.T.);
#137=FACE_BOUND('',#176,.T.);
#138=FACE_BOUND('',#178,.T.);
#139=FACE_BOUND('',#179,.T.);
#140=FACE_BOUND('',#180,.T.);
#141=FACE_BOUND('',#181,.T.);
#142=FACE_BOUND('',#182,.T.);
#143=FACE_BOUND('',#183,.T.);
#144=FACE_BOUND('',#184,.T.);
#145=FACE_BOUND('',#185,.T.);
#146=FACE_BOUND('',#186,.T.);
#147=FACE_BOUND('',#187,.T.);
#148=FACE_BOUND('',#188,.T.);
#149=FACE_BOUND('',#189,.T.);
#150=FACE_BOUND('',#190,.T.);
#151=FACE_BOUND('',#191,.T.);
#152=FACE_BOUND('',#192,.T.);
#153=FACE_BOUND('',#193,.T.);
#154=FACE_BOUND('',#194,.T.);
#155=FACE_BOUND('',#195,.T.);
#156=FACE_BOUND('',#200,.T.);
#157=FACE_BOUND('',#201,.T.);
#158=FACE_BOUND('',#202,.T.);
#159=FACE_BOUND('',#203,.T.);
#160=FACE_BOUND('',#204,.T.);
#161=FACE_BOUND('',#205,.T.);
#162=EDGE_LOOP('',(#206));
#163=EDGE_LOOP('',(#207));
#164=EDGE_LOOP('',(#208));
#165=EDGE_LOOP('',(#209));
#166=EDGE_LOOP('',(#210));
#167=EDGE_LOOP('',(#211));
#168=EDGE_LOOP('',(#212,#213,#214,#215));
#169=EDGE_LOOP('',(#216,#217,#218,#219));
#170=EDGE_LOOP('',(#220,#221,#222,#223));
#171=EDGE_LOOP('',(#224,#225,#226,#227));
#172=EDGE_LOOP('',(#228,#229,#230,#231));
#173=EDGE_LOOP('',(#232));
#174=EDGE_LOOP('',(#233));
#175=EDGE_LOOP('',(#234));
#176=EDGE_LOOP('',(#235));
#177=EDGE_LOOP('',(#236,#237,#238,#239));
#178=EDGE_LOOP('',(#240));
#179=EDGE_LOOP('',(#241));
#180=EDGE_LOOP('',(#242));
#181=EDGE_LOOP('',(#243));
#182=EDGE_LOOP('',(#244));
#183=EDGE_LOOP('',(#245,#246,#247,#248));
#184=EDGE_LOOP('',(#249));
#185=EDGE_LOOP('',(#250));
#186=EDGE_LOOP('',(#251));
#187=EDGE_LOOP('',(#252));
#188=EDGE_LOOP('',(#253));
#189=EDGE_LOOP('',(#254));
#190=EDGE_LOOP('',(#255));
#191=EDGE_LOOP('',(#256));
#192=EDGE_LOOP('',(#257));
#193=EDGE_LOOP('',(#258));
#194=EDGE_LOOP('',(#259));
#195=EDGE_LOOP('',(#260));
#196=EDGE_LOOP('',(#261,#262,#263,#264));
#197=EDGE_LOOP('',(#265,#266,#267,#268));
#198=EDGE_LOOP('',(#269,#270,#271,#272));
#199=EDGE_LOOP('',(#273,#274,#275,#276));
#200=EDGE_LOOP('',(#277,#278,#279,#280));
#201=EDGE_LOOP('',(#281));
#202=EDGE_LOOP('',(#282));
#203=EDGE_LOOP('',(#283));
#204=EDGE_LOOP('',(#284));
#205=EDGE_LOOP('',(#285));
#206=ORIENTED_EDGE('',*,*,#318,.T.);
#207=ORIENTED_EDGE('',*,*,#319,.F.);
#208=ORIENTED_EDGE('',*,*,#320,.F.);
#209=ORIENTED_EDGE('',*,*,#321,.F.);
#210=ORIENTED_EDGE('',*,*,#322,.T.);
#211=ORIENTED_EDGE('',*,*,#323,.F.);
#212=ORIENTED_EDGE('',*,*,#324,.F.);
#213=ORIENTED_EDGE('',*,*,#325,.F.);
#214=ORIENTED_EDGE('',*,*,#326,.F.);
#215=ORIENTED_EDGE('',*,*,#327,.F.);
#216=ORIENTED_EDGE('',*,*,#328,.F.);
#217=ORIENTED_EDGE('',*,*,#329,.F.);
#218=ORIENTED_EDGE('',*,*,#330,.F.);
#219=ORIENTED_EDGE('',*,*,#331,.F.);
#220=ORIENTED_EDGE('',*,*,#332,.F.);
#221=ORIENTED_EDGE('',*,*,#333,.F.);
#222=ORIENTED_EDGE('',*,*,#324,.T.);
#223=ORIENTED_EDGE('',*,*,#334,.T.);
#224=ORIENTED_EDGE('',*,*,#335,.F.);
#225=ORIENTED_EDGE('',*,*,#334,.F.);
#226=ORIENTED_EDGE('',*,*,#327,.T.);
#227=ORIENTED_EDGE('',*,*,#336,.T.);
#228=ORIENTED_EDGE('',*,*,#337,.F.);
#229=ORIENTED_EDGE('',*,*,#336,.F.);
#230=ORIENTED_EDGE('',*,*,#326,.T.);
#231=ORIENTED_EDGE('',*,*,#338,.T.);
#232=ORIENTED_EDGE('',*,*,#339,.F.);
#233=ORIENTED_EDGE('',*,*,#340,.T.);
#234=ORIENTED_EDGE('',*,*,#341,.F.);
#235=ORIENTED_EDGE('',*,*,#342,.T.);
#236=ORIENTED_EDGE('',*,*,#343,.F.);
#237=ORIENTED_EDGE('',*,*,#338,.F.);
#238=ORIENTED_EDGE('',*,*,#325,.T.);
#239=ORIENTED_EDGE('',*,*,#333,.T.);
#240=ORIENTED_EDGE('',*,*,#344,.T.);
#241=ORIENTED_EDGE('',*,*,#345,.T.);
#242=ORIENTED_EDGE('',*,*,#346,.T.);
#243=ORIENTED_EDGE('',*,*,#347,.T.);
#244=ORIENTED_EDGE('',*,*,#348,.F.);
#245=ORIENTED_EDGE('',*,*,#332,.T.);
#246=ORIENTED_EDGE('',*,*,#335,.T.);
#247=ORIENTED_EDGE('',*,*,#337,.T.);
#248=ORIENTED_EDGE('',*,*,#343,.T.);
#249=ORIENTED_EDGE('',*,*,#349,.F.);
#250=ORIENTED_EDGE('',*,*,#348,.T.);
#251=ORIENTED_EDGE('',*,*,#349,.T.);
#252=ORIENTED_EDGE('',*,*,#320,.T.);
#253=ORIENTED_EDGE('',*,*,#340,.F.);
#254=ORIENTED_EDGE('',*,*,#344,.F.);
#255=ORIENTED_EDGE('',*,*,#345,.F.);
#256=ORIENTED_EDGE('',*,*,#322,.F.);
#257=ORIENTED_EDGE('',*,*,#342,.F.);
#258=ORIENTED_EDGE('',*,*,#346,.F.);
#259=ORIENTED_EDGE('',*,*,#347,.F.);
#260=ORIENTED_EDGE('',*,*,#318,.F.);
#261=ORIENTED_EDGE('',*,*,#328,.T.);
#262=ORIENTED_EDGE('',*,*,#350,.T.);
#263=ORIENTED_EDGE('',*,*,#351,.T.);
#264=ORIENTED_EDGE('',*,*,#352,.F.);
#265=ORIENTED_EDGE('',*,*,#331,.T.);
#266=ORIENTED_EDGE('',*,*,#353,.T.);
#267=ORIENTED_EDGE('',*,*,#354,.T.);
#268=ORIENTED_EDGE('',*,*,#350,.F.);
#269=ORIENTED_EDGE('',*,*,#330,.T.);
#270=ORIENTED_EDGE('',*,*,#355,.T.);
#271=ORIENTED_EDGE('',*,*,#356,.T.);
#272=ORIENTED_EDGE('',*,*,#353,.F.);
#273=ORIENTED_EDGE('',*,*,#329,.T.);
#274=ORIENTED_EDGE('',*,*,#352,.T.);
#275=ORIENTED_EDGE('',*,*,#357,.T.);
#276=ORIENTED_EDGE('',*,*,#355,.F.);
#277=ORIENTED_EDGE('',*,*,#351,.F.);
#278=ORIENTED_EDGE('',*,*,#354,.F.);
#279=ORIENTED_EDGE('',*,*,#356,.F.);
#280=ORIENTED_EDGE('',*,*,#357,.F.);
#281=ORIENTED_EDGE('',*,*,#323,.T.);
#282=ORIENTED_EDGE('',*,*,#341,.T.);
#283=ORIENTED_EDGE('',*,*,#321,.T.);
#284=ORIENTED_EDGE('',*,*,#339,.T.);
#285=ORIENTED_EDGE('',*,*,#319,.T.);
#286=VERTEX_POINT('',#541);
#287=VERTEX_POINT('',#543);
#288=VERTEX_POINT('',#546);
#289=VERTEX_POINT('',#548);
#290=VERTEX_POINT('',#551);
#291=VERTEX_POINT('',#553);
#292=VERTEX_POINT('',#556);
#293=VERTEX_POINT('',#557);
#294=VERTEX_POINT('',#559);
#295=VERTEX_POINT('',#561);
#296=VERTEX_POINT('',#564);
#297=VERTEX_POINT('',#565);
#298=VERTEX_POINT('',#567);
#299=VERTEX_POINT('',#569);
#300=VERTEX_POINT('',#573);
#301=VERTEX_POINT('',#574);
#302=VERTEX_POINT('',#579);
#303=VERTEX_POINT('',#583);
#304=VERTEX_POINT('',#587);
#305=VERTEX_POINT('',#589);
#306=VERTEX_POINT('',#592);
#307=VERTEX_POINT('',#594);
#308=VERTEX_POINT('',#599);
#309=VERTEX_POINT('',#601);
#310=VERTEX_POINT('',#603);
#311=VERTEX_POINT('',#605);
#312=VERTEX_POINT('',#607);
#313=VERTEX_POINT('',#610);
#314=VERTEX_POINT('',#618);
#315=VERTEX_POINT('',#620);
#316=VERTEX_POINT('',#624);
#317=VERTEX_POINT('',#628);
#318=EDGE_CURVE('',#286,#286,#358,.T.);
#319=EDGE_CURVE('',#287,#287,#359,.T.);
#320=EDGE_CURVE('',#288,#288,#360,.T.);
#321=EDGE_CURVE('',#289,#289,#361,.T.);
#322=EDGE_CURVE('',#290,#290,#362,.T.);
#323=EDGE_CURVE('',#291,#291,#363,.T.);
#324=EDGE_CURVE('',#292,#293,#364,.T.);
#325=EDGE_CURVE('',#294,#292,#62,.T.);
#326=EDGE_CURVE('',#295,#294,#365,.T.);
#327=EDGE_CURVE('',#293,#295,#63,.T.);
#328=EDGE_CURVE('',#296,#297,#366,.T.);
#329=EDGE_CURVE('',#298,#296,#64,.T.);
#330=EDGE_CURVE('',#299,#298,#367,.T.);
#331=EDGE_CURVE('',#297,#299,#65,.T.);
#332=EDGE_CURVE('',#300,#301,#368,.T.);
#333=EDGE_CURVE('',#292,#300,#66,.T.);
#334=EDGE_CURVE('',#293,#301,#67,.T.);
#335=EDGE_CURVE('',#301,#302,#68,.T.);
#336=EDGE_CURVE('',#295,#302,#69,.T.);
#337=EDGE_CURVE('',#302,#303,#369,.T.);
#338=EDGE_CURVE('',#294,#303,#70,.T.);
#339=EDGE_CURVE('',#304,#304,#370,.T.);
#340=EDGE_CURVE('',#305,#305,#371,.T.);
#341=EDGE_CURVE('',#306,#306,#372,.T.);
#342=EDGE_CURVE('',#307,#307,#373,.T.);
#343=EDGE_CURVE('',#303,#300,#71,.T.);
#344=EDGE_CURVE('',#308,#308,#374,.T.);
#345=EDGE_CURVE('',#309,#309,#375,.T.);
#346=EDGE_CURVE('',#310,#310,#376,.T.);
#347=EDGE_CURVE('',#311,#311,#377,.T.);
#348=EDGE_CURVE('',#312,#312,#378,.T.);
#349=EDGE_CURVE('',#313,#313,#379,.T.);
#350=EDGE_CURVE('',#297,#314,#72,.T.);
#351=EDGE_CURVE('',#314,#315,#380,.T.);
#352=EDGE_CURVE('',#296,#315,#73,.T.);
#353=EDGE_CURVE('',#299,#316,#74,.T.);
#354=EDGE_CURVE('',#316,#314,#75,.T.);
#355=EDGE_CURVE('',#298,#317,#76,.T.);
#356=EDGE_CURVE('',#317,#316,#381,.T.);
#357=EDGE_CURVE('',#315,#317,#77,.T.);
#358=CIRCLE('',#383,3.25);
#359=CIRCLE('',#384,3.25);
#360=CIRCLE('',#386,21.2);
#361=CIRCLE('',#387,21.2);
#362=CIRCLE('',#389,3.25);
#363=CIRCLE('',#390,3.25);
#364=CIRCLE('',#392,42.5);
#365=CIRCLE('',#393,42.5);
#366=CIRCLE('',#394,40.);
#367=CIRCLE('',#395,40.);
#368=CIRCLE('',#397,42.5);
#369=CIRCLE('',#400,42.5);
#370=CIRCLE('',#402,3.25);
#371=CIRCLE('',#403,3.25);
#372=CIRCLE('',#405,3.25);
#373=CIRCLE('',#406,3.25);
#374=CIRCLE('',#409,4.35);
#375=CIRCLE('',#410,4.35);
#376=CIRCLE('',#411,4.35);
#377=CIRCLE('',#412,4.35);
#378=CIRCLE('',#413,23.7);
#379=CIRCLE('',#415,23.7);
#380=CIRCLE('',#422,40.);
#381=CIRCLE('',#425,40.);
#382=AXIS2_PLACEMENT_3D('',#539,#429,#430);
#383=AXIS2_PLACEMENT_3D('',#540,#431,#432);
#384=AXIS2_PLACEMENT_3D('',#542,#433,#434);
#385=AXIS2_PLACEMENT_3D('',#544,#435,#436);
#386=AXIS2_PLACEMENT_3D('',#545,#437,#438);
#387=AXIS2_PLACEMENT_3D('',#547,#439,#440);
#388=AXIS2_PLACEMENT_3D('',#549,#441,#442);
#389=AXIS2_PLACEMENT_3D('',#550,#443,#444);
#390=AXIS2_PLACEMENT_3D('',#552,#445,#446);
#391=AXIS2_PLACEMENT_3D('',#554,#447,#448);
#392=AXIS2_PLACEMENT_3D('',#555,#449,#450);
#393=AXIS2_PLACEMENT_3D('',#560,#452,#453);
#394=AXIS2_PLACEMENT_3D('',#563,#455,#456);
#395=AXIS2_PLACEMENT_3D('',#568,#458,#459);
#396=AXIS2_PLACEMENT_3D('',#571,#461,#462);
#397=AXIS2_PLACEMENT_3D('',#572,#463,#464);
#398=AXIS2_PLACEMENT_3D('',#577,#467,#468);
#399=AXIS2_PLACEMENT_3D('',#581,#471,#472);
#400=AXIS2_PLACEMENT_3D('',#582,#473,#474);
#401=AXIS2_PLACEMENT_3D('',#585,#476,#477);
#402=AXIS2_PLACEMENT_3D('',#586,#478,#479);
#403=AXIS2_PLACEMENT_3D('',#588,#480,#481);
#404=AXIS2_PLACEMENT_3D('',#590,#482,#483);
#405=AXIS2_PLACEMENT_3D('',#591,#484,#485);
#406=AXIS2_PLACEMENT_3D('',#593,#486,#487);
#407=AXIS2_PLACEMENT_3D('',#595,#488,#489);
#408=AXIS2_PLACEMENT_3D('',#597,#491,#492);
#409=AXIS2_PLACEMENT_3D('',#598,#493,#494);
#410=AXIS2_PLACEMENT_3D('',#600,#495,#496);
#411=AXIS2_PLACEMENT_3D('',#602,#497,#498);
#412=AXIS2_PLACEMENT_3D('',#604,#499,#500);
#413=AXIS2_PLACEMENT_3D('',#606,#501,#502);
#414=AXIS2_PLACEMENT_3D('',#608,#503,#504);
#415=AXIS2_PLACEMENT_3D('',#609,#505,#506);
#416=AXIS2_PLACEMENT_3D('',#611,#507,#508);
#417=AXIS2_PLACEMENT_3D('',#612,#509,#510);
#418=AXIS2_PLACEMENT_3D('',#613,#511,#512);
#419=AXIS2_PLACEMENT_3D('',#614,#513,#514);
#420=AXIS2_PLACEMENT_3D('',#615,#515,#516);
#421=AXIS2_PLACEMENT_3D('',#616,#517,#518);
#422=AXIS2_PLACEMENT_3D('',#619,#520,#521);
#423=AXIS2_PLACEMENT_3D('',#622,#523,#524);
#424=AXIS2_PLACEMENT_3D('',#626,#527,#528);
#425=AXIS2_PLACEMENT_3D('',#629,#530,#531);
#426=AXIS2_PLACEMENT_3D('',#630,#532,#533);
#427=AXIS2_PLACEMENT_3D('',#632,#535,#536);
#428=AXIS2_PLACEMENT_3D('',#633,#537,#538);
#429=DIRECTION('',(0.,0.,1.));
#430=DIRECTION('',(1.,0.,0.));
#431=DIRECTION('',(0.,0.,1.));
#432=DIRECTION('',(1.,0.,0.));
#433=DIRECTION('',(0.,0.,1.));
#434=DIRECTION('',(-1.,0.,0.));
#435=DIRECTION('',(0.,0.,1.));
#436=DIRECTION('',(1.,0.,0.));
#437=DIRECTION('',(0.,0.,-1.));
#438=DIRECTION('',(1.,1.22464679914735E-16,0.));
#439=DIRECTION('',(0.,0.,1.));
#440=DIRECTION('',(1.,0.,0.));
#441=DIRECTION('',(0.,0.,1.));
#442=DIRECTION('',(1.,0.,0.));
#443=DIRECTION('',(0.,0.,1.));
#444=DIRECTION('',(1.,0.,0.));
#445=DIRECTION('',(0.,0.,1.));
#446=DIRECTION('',(1.,0.,0.));
#447=DIRECTION('',(0.,0.,1.));
#448=DIRECTION('',(1.,0.,0.));
#449=DIRECTION('',(0.,0.,1.));
#450=DIRECTION('',(1.,0.,0.));
#451=DIRECTION('',(-1.,0.,0.));
#452=DIRECTION('',(0.,0.,1.));
#453=DIRECTION('',(1.,0.,0.));
#454=DIRECTION('',(1.,0.,0.));
#455=DIRECTION('',(0.,0.,-1.));
#456=DIRECTION('',(1.,1.22464679914735E-16,0.));
#457=DIRECTION('',(-1.,0.,0.));
#458=DIRECTION('',(0.,0.,-1.));
#459=DIRECTION('',(1.,1.22464679914735E-16,0.));
#460=DIRECTION('',(1.,0.,0.));
#461=DIRECTION('',(0.,0.,1.));
#462=DIRECTION('',(1.,0.,0.));
#463=DIRECTION('',(0.,0.,1.));
#464=DIRECTION('',(1.,0.,0.));
#465=DIRECTION('',(0.,0.,1.));
#466=DIRECTION('',(0.,0.,1.));
#467=DIRECTION('',(0.,0.,1.));
#468=DIRECTION('',(1.,0.,0.));
#469=DIRECTION('',(1.,0.,0.));
#470=DIRECTION('',(0.,0.,1.));
#471=DIRECTION('',(0.,-1.,0.));
#472=DIRECTION('',(0.,0.,-1.));
#473=DIRECTION('',(0.,0.,1.));
#474=DIRECTION('',(1.,0.,0.));
#475=DIRECTION('',(0.,0.,1.));
#476=DIRECTION('',(0.,0.,1.));
#477=DIRECTION('',(1.,0.,0.));
#478=DIRECTION('',(0.,0.,1.));
#479=DIRECTION('',(-1.,0.,0.));
#480=DIRECTION('',(0.,0.,1.));
#481=DIRECTION('',(1.,0.,0.));
#482=DIRECTION('',(0.,0.,1.));
#483=DIRECTION('',(1.,0.,0.));
#484=DIRECTION('',(0.,0.,1.));
#485=DIRECTION('',(1.,0.,0.));
#486=DIRECTION('',(0.,0.,1.));
#487=DIRECTION('',(1.,0.,0.));
#488=DIRECTION('',(0.,0.,1.));
#489=DIRECTION('',(1.,0.,0.));
#490=DIRECTION('',(-1.,0.,0.));
#491=DIRECTION('',(0.,1.,0.));
#492=DIRECTION('',(0.,0.,1.));
#493=DIRECTION('',(0.,0.,-1.));
#494=DIRECTION('',(1.,0.,0.));
#495=DIRECTION('',(0.,0.,-1.));
#496=DIRECTION('',(1.,0.,0.));
#497=DIRECTION('',(0.,0.,-1.));
#498=DIRECTION('',(1.,0.,0.));
#499=DIRECTION('',(0.,0.,-1.));
#500=DIRECTION('',(1.,0.,0.));
#501=DIRECTION('',(0.,0.,1.));
#502=DIRECTION('',(1.,0.,0.));
#503=DIRECTION('',(0.,0.,1.));
#504=DIRECTION('',(1.,0.,0.));
#505=DIRECTION('',(0.,0.,1.));
#506=DIRECTION('',(1.,0.,0.));
#507=DIRECTION('',(0.,0.,-1.));
#508=DIRECTION('',(-1.,0.,0.));
#509=DIRECTION('',(0.,0.,1.));
#510=DIRECTION('',(1.,0.,0.));
#511=DIRECTION('',(0.,0.,1.));
#512=DIRECTION('',(1.,0.,0.));
#513=DIRECTION('',(0.,0.,1.));
#514=DIRECTION('',(1.,0.,1.01584853439958E-17));
#515=DIRECTION('',(0.,0.,1.));
#516=DIRECTION('',(1.,0.,0.));
#517=DIRECTION('',(0.,0.,1.));
#518=DIRECTION('',(1.,0.,1.01584853439958E-17));
#519=DIRECTION('',(0.,0.,1.));
#520=DIRECTION('',(0.,0.,1.));
#521=DIRECTION('',(1.,1.22464679914735E-16,0.));
#522=DIRECTION('',(0.,0.,1.));
#523=DIRECTION('',(0.,0.,-1.));
#524=DIRECTION('',(-1.,0.,0.));
#525=DIRECTION('',(0.,0.,1.));
#526=DIRECTION('',(-1.,0.,0.));
#527=DIRECTION('',(0.,1.,0.));
#528=DIRECTION('',(0.,0.,1.));
#529=DIRECTION('',(0.,0.,1.));
#530=DIRECTION('',(0.,0.,1.));
#531=DIRECTION('',(1.,1.22464679914735E-16,0.));
#532=DIRECTION('',(0.,0.,-1.));
#533=DIRECTION('',(-1.,0.,0.));
#534=DIRECTION('',(1.,0.,0.));
#535=DIRECTION('',(0.,-1.,0.));
#536=DIRECTION('',(0.,0.,-1.));
#537=DIRECTION('',(0.,0.,-1.));
#538=DIRECTION('',(-1.,0.,0.));
#539=CARTESIAN_POINT('',(0.,0.,0.));
#540=CARTESIAN_POINT('',(-27.5068392174337,-19.6248069633179,-1.1));
#541=CARTESIAN_POINT('',(-24.2568392174337,-19.6248069633179,-1.1));
#542=CARTESIAN_POINT('',(-27.5068392174337,-19.6248069633179,-1.5));
#543=CARTESIAN_POINT('',(-30.7568392174337,-19.6248069633179,-1.5));
#544=CARTESIAN_POINT('',(-27.5068392174337,-19.6248069633179,-2.5));
#545=CARTESIAN_POINT('',(0.,0.,22.5));
#546=CARTESIAN_POINT('',(21.2,2.59625121419239E-15,22.5));
#547=CARTESIAN_POINT('',(0.,0.,-1.5));
#548=CARTESIAN_POINT('',(21.2,0.,-1.5));
#549=CARTESIAN_POINT('',(0.,0.,-2.5));
#550=CARTESIAN_POINT('',(27.5068392174337,19.6248069633179,-1.1));
#551=CARTESIAN_POINT('',(30.7568392174337,19.6248069633179,-1.1));
#552=CARTESIAN_POINT('',(27.5068392174337,19.6248069633179,-1.5));
#553=CARTESIAN_POINT('',(30.7568392174337,19.6248069633179,-1.5));
#554=CARTESIAN_POINT('',(27.5068392174337,19.6248069633179,-2.5));
#555=CARTESIAN_POINT('',(0.,0.,-2.5));
#556=CARTESIAN_POINT('',(-32.8214868644933,27.0000000000721,-2.5));
#557=CARTESIAN_POINT('',(-32.8214868645335,-27.0000000000232,-2.5));
#558=CARTESIAN_POINT('',(32.8214868645526,27.,-2.5));
#559=CARTESIAN_POINT('',(32.8214868645526,27.,-2.5));
#560=CARTESIAN_POINT('',(0.,0.,-2.5));
#561=CARTESIAN_POINT('',(32.8214868645526,-27.,-2.5));
#562=CARTESIAN_POINT('',(-32.8214868645526,-27.,-2.5));
#563=CARTESIAN_POINT('',(0.,0.,-2.5));
#564=CARTESIAN_POINT('',(-31.6188235075248,-24.5,-2.5));
#565=CARTESIAN_POINT('',(-31.6188235075248,24.5,-2.5));
#566=CARTESIAN_POINT('',(31.6188235075248,-24.5,-2.5));
#567=CARTESIAN_POINT('',(31.6188235075248,-24.5,-2.5));
#568=CARTESIAN_POINT('',(0.,0.,-2.5));
#569=CARTESIAN_POINT('',(31.6188235075248,24.5,-2.5));
#570=CARTESIAN_POINT('',(-31.6188235075248,24.5,-2.5));
#571=CARTESIAN_POINT('',(0.,0.,-2.5));
#572=CARTESIAN_POINT('',(0.,0.,0.));
#573=CARTESIAN_POINT('',(-32.8214868644933,27.0000000000721,0.));
#574=CARTESIAN_POINT('',(-32.8214868645335,-27.0000000000232,0.));
#575=CARTESIAN_POINT('',(-32.8214868644933,27.0000000000721,-2.5));
#576=CARTESIAN_POINT('',(-32.8214868645335,-27.0000000000232,-2.5));
#577=CARTESIAN_POINT('',(0.,0.,-2.5));
#578=CARTESIAN_POINT('',(-32.8214868645526,-27.,0.));
#579=CARTESIAN_POINT('',(32.8214868645526,-27.,0.));
#580=CARTESIAN_POINT('',(32.8214868645526,-27.,-2.5));
#581=CARTESIAN_POINT('',(-32.8214868645526,-27.,-2.5));
#582=CARTESIAN_POINT('',(0.,0.,0.));
#583=CARTESIAN_POINT('',(32.8214868645526,27.,0.));
#584=CARTESIAN_POINT('',(32.8214868645526,27.,-2.5));
#585=CARTESIAN_POINT('',(0.,0.,-2.5));
#586=CARTESIAN_POINT('',(-27.5068392174337,19.6248069633179,-1.5));
#587=CARTESIAN_POINT('',(-30.7568392174337,19.6248069633179,-1.5));
#588=CARTESIAN_POINT('',(-27.5068392174337,19.6248069633179,-1.1));
#589=CARTESIAN_POINT('',(-24.2568392174337,19.6248069633179,-1.1));
#590=CARTESIAN_POINT('',(-27.5068392174337,19.6248069633179,-2.5));
#591=CARTESIAN_POINT('',(27.5068392174337,-19.6248069633179,-1.5));
#592=CARTESIAN_POINT('',(30.7568392174337,-19.6248069633179,-1.5));
#593=CARTESIAN_POINT('',(27.5068392174337,-19.6248069633179,-1.1));
#594=CARTESIAN_POINT('',(30.7568392174337,-19.6248069633179,-1.1));
#595=CARTESIAN_POINT('',(27.5068392174337,-19.6248069633179,-2.5));
#596=CARTESIAN_POINT('',(32.8214868645526,27.,0.));
#597=CARTESIAN_POINT('',(32.8214868645526,27.,-2.5));
#598=CARTESIAN_POINT('',(-27.5068392174337,19.6248069633179,0.));
#599=CARTESIAN_POINT('',(-23.1568392174337,19.6248069633179,0.));
#600=CARTESIAN_POINT('',(27.5068392174337,19.6248069633179,0.));
#601=CARTESIAN_POINT('',(31.8568392174337,19.6248069633179,0.));
#602=CARTESIAN_POINT('',(27.5068392174337,-19.6248069633179,0.));
#603=CARTESIAN_POINT('',(31.8568392174337,-19.6248069633179,0.));
#604=CARTESIAN_POINT('',(-27.5068392174337,-19.6248069633179,0.));
#605=CARTESIAN_POINT('',(-23.1568392174337,-19.6248069633179,0.));
#606=CARTESIAN_POINT('',(0.,0.,0.));
#607=CARTESIAN_POINT('',(23.7,0.,0.));
#608=CARTESIAN_POINT('',(0.,0.,0.));
#609=CARTESIAN_POINT('',(0.,0.,22.5));
#610=CARTESIAN_POINT('',(23.7,0.,22.5));
#611=CARTESIAN_POINT('',(0.,0.,22.5));
#612=CARTESIAN_POINT('',(0.,0.,22.5));
#613=CARTESIAN_POINT('',(-27.5068392174337,19.6248069633179,0.));
#614=CARTESIAN_POINT('',(27.5068392174337,19.6248069633179,-1.1));
#615=CARTESIAN_POINT('',(27.5068392174337,-19.6248069633179,0.));
#616=CARTESIAN_POINT('',(-27.5068392174337,-19.6248069633179,-1.1));
#617=CARTESIAN_POINT('',(-31.6188235075248,24.5,-1.5));
#618=CARTESIAN_POINT('',(-31.6188235075248,24.5,-1.5));
#619=CARTESIAN_POINT('',(0.,0.,-1.5));
#620=CARTESIAN_POINT('',(-31.6188235075248,-24.5,-1.5));
#621=CARTESIAN_POINT('',(-31.6188235075248,-24.5,-1.5));
#622=CARTESIAN_POINT('',(0.,0.,-1.5));
#623=CARTESIAN_POINT('',(31.6188235075248,24.5,-1.5));
#624=CARTESIAN_POINT('',(31.6188235075248,24.5,-1.5));
#625=CARTESIAN_POINT('',(-31.6188235075248,24.5,-1.5));
#626=CARTESIAN_POINT('',(-31.6188235075248,24.5,-1.5));
#627=CARTESIAN_POINT('',(31.6188235075248,-24.5,-1.5));
#628=CARTESIAN_POINT('',(31.6188235075248,-24.5,-1.5));
#629=CARTESIAN_POINT('',(0.,0.,-1.5));
#630=CARTESIAN_POINT('',(0.,0.,-1.5));
#631=CARTESIAN_POINT('',(31.6188235075248,-24.5,-1.5));
#632=CARTESIAN_POINT('',(31.6188235075248,-24.5,-1.5));
#633=CARTESIAN_POINT('',(0.,0.,-1.5));
#634=MECHANICAL_DESIGN_GEOMETRIC_PRESENTATION_REPRESENTATION('',(#32),#635);
#635=(
GEOMETRIC_REPRESENTATION_CONTEXT(3)
GLOBAL_UNCERTAINTY_ASSIGNED_CONTEXT((#636))
GLOBAL_UNIT_ASSIGNED_CONTEXT((#642,#638,#637))
REPRESENTATION_CONTEXT('Wandanker_geschlieffen_X249',
'TOP_LEVEL_ASSEMBLY_PART')
);
#636=UNCERTAINTY_MEASURE_WITH_UNIT(LENGTH_MEASURE(2.E-5),#642,
'DISTANCE_ACCURACY_VALUE','Maximum Tolerance applied to model');
#637=(
NAMED_UNIT(*)
SI_UNIT($,.STERADIAN.)
SOLID_ANGLE_UNIT()
);
#638=(
CONVERSION_BASED_UNIT('DEGREE',#640)
NAMED_UNIT(#639)
PLANE_ANGLE_UNIT()
);
#639=DIMENSIONAL_EXPONENTS(0.,0.,0.,0.,0.,0.,0.);
#640=PLANE_ANGLE_MEASURE_WITH_UNIT(PLANE_ANGLE_MEASURE(0.0174532925),#641);
#641=(
NAMED_UNIT(*)
PLANE_ANGLE_UNIT()
SI_UNIT($,.RADIAN.)
);
#642=(
LENGTH_UNIT()
NAMED_UNIT(*)
SI_UNIT(.MILLI.,.METRE.)
);
ENDSEC;
END-ISO-10303-21;
