ISO-10303-21;
HEADER;
/* Generated by software containing ST-Developer
 * from STEP Tools, Inc. (www.steptools.com) 
 */
/* OPTION: using custom schema-name function */

FILE_DESCRIPTION(
/* description */ (''),
/* implementation_level */ '2;1');

FILE_NAME(
/* name */ '2141_Cosch_Edelstahltechnik.stp',
/* time_stamp */ '2018-11-17T18:04:23+01:00',
/* author */ (''),
/* organization */ (''),
/* preprocessor_version */ 'ST-DEVELOPER v16',
/* originating_system */ 'SIEMENS PLM Software NX 11.0',
/* authorisation */ '');

FILE_SCHEMA (('AUTOMOTIVE_DESIGN { 1 0 10303 214 3 1 1 1 }'));
ENDSEC;

DATA;
#10=CONSTRUCTIVE_GEOMETRY_REPRESENTATION_RELATIONSHIP(
'supplemental geometry','',#34,#11);
#11=CONSTRUCTIVE_GEOMETRY_REPRESENTATION('supplemental geometry',(#318),
#483);
#12=GEOMETRICALLY_BOUNDED_WIREFRAME_SHAPE_REPRESENTATION(
'Goge239860DCck7z-None',(#35),#483);
#13=PROPERTY_DEFINITION_REPRESENTATION(#17,#15);
#14=PROPERTY_DEFINITION_REPRESENTATION(#18,#16);
#15=REPRESENTATION('',(#19),#483);
#16=REPRESENTATION('',(#20),#483);
#17=PROPERTY_DEFINITION('pmi validation property','',#25);
#18=PROPERTY_DEFINITION('pmi validation property','',#25);
#19=VALUE_REPRESENTATION_ITEM('number of annotations',COUNT_MEASURE(0.));
#20=VALUE_REPRESENTATION_ITEM('number of views',COUNT_MEASURE(0.));
#21=SHAPE_REPRESENTATION_RELATIONSHIP('None',
'relationship between Goge239860DCck7z-None and Goge239860DCck7z-None',
#34,#23);
#22=SHAPE_REPRESENTATION_RELATIONSHIP('None',
'relationship between Goge239860DCck7z-None and Goge239860DCck7z-None',
#34,#12);
#23=ADVANCED_BREP_SHAPE_REPRESENTATION('Goge239860DCck7z-None',(#41),#483);
#24=SHAPE_DEFINITION_REPRESENTATION(#25,#34);
#25=PRODUCT_DEFINITION_SHAPE('','',#26);
#26=PRODUCT_DEFINITION(' ','',#28,#27);
#27=PRODUCT_DEFINITION_CONTEXT('part definition',#33,'design');
#28=PRODUCT_DEFINITION_FORMATION_WITH_SPECIFIED_SOURCE(' ',' ',#30,
 .NOT_KNOWN.);
#29=PRODUCT_RELATED_PRODUCT_CATEGORY('part','',(#30));
#30=PRODUCT('Goge239860DCck7z','Goge239860DCck7z',' ',(#31));
#31=PRODUCT_CONTEXT(' ',#33,'mechanical');
#32=APPLICATION_PROTOCOL_DEFINITION('international standard',
'automotive_design',2010,#33);
#33=APPLICATION_CONTEXT(
'core data for automotive mechanical design processes');
#34=SHAPE_REPRESENTATION('Goge239860DCck7z-None',(#317),#483);
#35=GEOMETRIC_CURVE_SET('None',(#409));
#36=SURFACE_STYLE_USAGE(.BOTH.,#37);
#37=SURFACE_SIDE_STYLE('',(#38));
#38=SURFACE_STYLE_FILL_AREA(#39);
#39=FILL_AREA_STYLE('',(#40));
#40=FILL_AREA_STYLE_COLOUR('',#316);
#41=MANIFOLD_SOLID_BREP('',#42);
#42=CLOSED_SHELL('',(#59,#60,#61,#62,#63,#64,#65,#66,#67,#68,#69,#70,#71,
#72,#73,#74,#75));
#43=FACE_OUTER_BOUND('',#97,.T.);
#44=FACE_OUTER_BOUND('',#98,.T.);
#45=FACE_OUTER_BOUND('',#99,.T.);
#46=FACE_OUTER_BOUND('',#100,.T.);
#47=FACE_OUTER_BOUND('',#101,.T.);
#48=FACE_OUTER_BOUND('',#102,.T.);
#49=FACE_OUTER_BOUND('',#103,.T.);
#50=FACE_OUTER_BOUND('',#104,.T.);
#51=FACE_OUTER_BOUND('',#105,.T.);
#52=FACE_OUTER_BOUND('',#106,.T.);
#53=FACE_OUTER_BOUND('',#107,.T.);
#54=FACE_OUTER_BOUND('',#108,.T.);
#55=FACE_OUTER_BOUND('',#109,.T.);
#56=FACE_OUTER_BOUND('',#110,.T.);
#57=FACE_OUTER_BOUND('',#111,.T.);
#58=FACE_OUTER_BOUND('',#112,.T.);
#59=ADVANCED_FACE('',(#93,#94),#76,.T.);
#60=ADVANCED_FACE('',(#43),#77,.T.);
#61=ADVANCED_FACE('',(#44),#78,.T.);
#62=ADVANCED_FACE('',(#45),#79,.T.);
#63=ADVANCED_FACE('',(#46),#80,.T.);
#64=ADVANCED_FACE('',(#47),#81,.T.);
#65=ADVANCED_FACE('',(#48),#82,.T.);
#66=ADVANCED_FACE('',(#49),#83,.T.);
#67=ADVANCED_FACE('',(#50),#84,.T.);
#68=ADVANCED_FACE('',(#51),#85,.F.);
#69=ADVANCED_FACE('',(#52),#86,.F.);
#70=ADVANCED_FACE('',(#53),#87,.F.);
#71=ADVANCED_FACE('',(#54),#88,.F.);
#72=ADVANCED_FACE('',(#55),#89,.F.);
#73=ADVANCED_FACE('',(#56),#90,.F.);
#74=ADVANCED_FACE('',(#57),#91,.F.);
#75=ADVANCED_FACE('',(#58),#92,.F.);
#76=PLANE('',#319);
#77=PLANE('',#320);
#78=PLANE('',#321);
#79=PLANE('',#322);
#80=PLANE('',#323);
#81=PLANE('',#324);
#82=PLANE('',#325);
#83=PLANE('',#326);
#84=PLANE('',#327);
#85=PLANE('',#328);
#86=PLANE('',#329);
#87=PLANE('',#330);
#88=PLANE('',#331);
#89=PLANE('',#332);
#90=PLANE('',#333);
#91=PLANE('',#334);
#92=PLANE('',#335);
#93=FACE_BOUND('',#95,.T.);
#94=FACE_BOUND('',#96,.T.);
#95=EDGE_LOOP('',(#113,#114,#115,#116));
#96=EDGE_LOOP('',(#117,#118,#119,#120));
#97=EDGE_LOOP('',(#121,#122,#123,#124));
#98=EDGE_LOOP('',(#125,#126,#127));
#99=EDGE_LOOP('',(#128,#129,#130,#131));
#100=EDGE_LOOP('',(#132,#133,#134));
#101=EDGE_LOOP('',(#135,#136,#137,#138));
#102=EDGE_LOOP('',(#139,#140,#141,#142));
#103=EDGE_LOOP('',(#143,#144,#145,#146));
#104=EDGE_LOOP('',(#147,#148,#149,#150));
#105=EDGE_LOOP('',(#151,#152,#153,#154));
#106=EDGE_LOOP('',(#155,#156,#157));
#107=EDGE_LOOP('',(#158,#159,#160,#161));
#108=EDGE_LOOP('',(#162,#163,#164));
#109=EDGE_LOOP('',(#165,#166,#167,#168));
#110=EDGE_LOOP('',(#169,#170,#171,#172));
#111=EDGE_LOOP('',(#173,#174,#175,#176));
#112=EDGE_LOOP('',(#177,#178,#179,#180));
#113=ORIENTED_EDGE('',*,*,#201,.F.);
#114=ORIENTED_EDGE('',*,*,#202,.F.);
#115=ORIENTED_EDGE('',*,*,#203,.F.);
#116=ORIENTED_EDGE('',*,*,#204,.F.);
#117=ORIENTED_EDGE('',*,*,#205,.T.);
#118=ORIENTED_EDGE('',*,*,#206,.T.);
#119=ORIENTED_EDGE('',*,*,#207,.T.);
#120=ORIENTED_EDGE('',*,*,#208,.T.);
#121=ORIENTED_EDGE('',*,*,#209,.F.);
#122=ORIENTED_EDGE('',*,*,#210,.F.);
#123=ORIENTED_EDGE('',*,*,#211,.T.);
#124=ORIENTED_EDGE('',*,*,#212,.T.);
#125=ORIENTED_EDGE('',*,*,#210,.T.);
#126=ORIENTED_EDGE('',*,*,#213,.F.);
#127=ORIENTED_EDGE('',*,*,#214,.T.);
#128=ORIENTED_EDGE('',*,*,#213,.T.);
#129=ORIENTED_EDGE('',*,*,#209,.T.);
#130=ORIENTED_EDGE('',*,*,#215,.F.);
#131=ORIENTED_EDGE('',*,*,#216,.T.);
#132=ORIENTED_EDGE('',*,*,#217,.T.);
#133=ORIENTED_EDGE('',*,*,#215,.T.);
#134=ORIENTED_EDGE('',*,*,#212,.F.);
#135=ORIENTED_EDGE('',*,*,#218,.T.);
#136=ORIENTED_EDGE('',*,*,#211,.F.);
#137=ORIENTED_EDGE('',*,*,#219,.F.);
#138=ORIENTED_EDGE('',*,*,#202,.T.);
#139=ORIENTED_EDGE('',*,*,#219,.T.);
#140=ORIENTED_EDGE('',*,*,#214,.F.);
#141=ORIENTED_EDGE('',*,*,#220,.F.);
#142=ORIENTED_EDGE('',*,*,#203,.T.);
#143=ORIENTED_EDGE('',*,*,#220,.T.);
#144=ORIENTED_EDGE('',*,*,#216,.F.);
#145=ORIENTED_EDGE('',*,*,#221,.F.);
#146=ORIENTED_EDGE('',*,*,#204,.T.);
#147=ORIENTED_EDGE('',*,*,#201,.T.);
#148=ORIENTED_EDGE('',*,*,#221,.T.);
#149=ORIENTED_EDGE('',*,*,#217,.F.);
#150=ORIENTED_EDGE('',*,*,#218,.F.);
#151=ORIENTED_EDGE('',*,*,#222,.T.);
#152=ORIENTED_EDGE('',*,*,#223,.F.);
#153=ORIENTED_EDGE('',*,*,#224,.F.);
#154=ORIENTED_EDGE('',*,*,#225,.T.);
#155=ORIENTED_EDGE('',*,*,#225,.F.);
#156=ORIENTED_EDGE('',*,*,#226,.F.);
#157=ORIENTED_EDGE('',*,*,#227,.T.);
#158=ORIENTED_EDGE('',*,*,#227,.F.);
#159=ORIENTED_EDGE('',*,*,#228,.F.);
#160=ORIENTED_EDGE('',*,*,#229,.T.);
#161=ORIENTED_EDGE('',*,*,#222,.F.);
#162=ORIENTED_EDGE('',*,*,#230,.F.);
#163=ORIENTED_EDGE('',*,*,#223,.T.);
#164=ORIENTED_EDGE('',*,*,#229,.F.);
#165=ORIENTED_EDGE('',*,*,#231,.F.);
#166=ORIENTED_EDGE('',*,*,#205,.F.);
#167=ORIENTED_EDGE('',*,*,#232,.T.);
#168=ORIENTED_EDGE('',*,*,#224,.T.);
#169=ORIENTED_EDGE('',*,*,#232,.F.);
#170=ORIENTED_EDGE('',*,*,#208,.F.);
#171=ORIENTED_EDGE('',*,*,#233,.T.);
#172=ORIENTED_EDGE('',*,*,#226,.T.);
#173=ORIENTED_EDGE('',*,*,#233,.F.);
#174=ORIENTED_EDGE('',*,*,#207,.F.);
#175=ORIENTED_EDGE('',*,*,#234,.T.);
#176=ORIENTED_EDGE('',*,*,#228,.T.);
#177=ORIENTED_EDGE('',*,*,#206,.F.);
#178=ORIENTED_EDGE('',*,*,#231,.T.);
#179=ORIENTED_EDGE('',*,*,#230,.T.);
#180=ORIENTED_EDGE('',*,*,#234,.F.);
#181=VERTEX_POINT('',#412);
#182=VERTEX_POINT('',#413);
#183=VERTEX_POINT('',#415);
#184=VERTEX_POINT('',#417);
#185=VERTEX_POINT('',#420);
#186=VERTEX_POINT('',#421);
#187=VERTEX_POINT('',#423);
#188=VERTEX_POINT('',#425);
#189=VERTEX_POINT('',#429);
#190=VERTEX_POINT('',#430);
#191=VERTEX_POINT('',#432);
#192=VERTEX_POINT('',#434);
#193=VERTEX_POINT('',#438);
#194=VERTEX_POINT('',#442);
#195=VERTEX_POINT('',#456);
#196=VERTEX_POINT('',#457);
#197=VERTEX_POINT('',#459);
#198=VERTEX_POINT('',#461);
#199=VERTEX_POINT('',#465);
#200=VERTEX_POINT('',#469);
#201=EDGE_CURVE('',#181,#182,#235,.T.);
#202=EDGE_CURVE('',#183,#181,#236,.T.);
#203=EDGE_CURVE('',#184,#183,#237,.T.);
#204=EDGE_CURVE('',#182,#184,#238,.T.);
#205=EDGE_CURVE('',#185,#186,#239,.T.);
#206=EDGE_CURVE('',#186,#187,#240,.T.);
#207=EDGE_CURVE('',#187,#188,#241,.T.);
#208=EDGE_CURVE('',#188,#185,#242,.T.);
#209=EDGE_CURVE('',#189,#190,#243,.T.);
#210=EDGE_CURVE('',#191,#189,#244,.T.);
#211=EDGE_CURVE('',#191,#192,#245,.T.);
#212=EDGE_CURVE('',#192,#190,#246,.T.);
#213=EDGE_CURVE('',#193,#189,#247,.T.);
#214=EDGE_CURVE('',#193,#191,#248,.T.);
#215=EDGE_CURVE('',#194,#190,#249,.T.);
#216=EDGE_CURVE('',#194,#193,#250,.T.);
#217=EDGE_CURVE('',#192,#194,#251,.T.);
#218=EDGE_CURVE('',#181,#192,#252,.T.);
#219=EDGE_CURVE('',#183,#191,#253,.T.);
#220=EDGE_CURVE('',#184,#193,#254,.T.);
#221=EDGE_CURVE('',#182,#194,#255,.T.);
#222=EDGE_CURVE('',#195,#196,#256,.T.);
#223=EDGE_CURVE('',#197,#196,#257,.T.);
#224=EDGE_CURVE('',#198,#197,#258,.T.);
#225=EDGE_CURVE('',#198,#195,#259,.T.);
#226=EDGE_CURVE('',#199,#198,#260,.T.);
#227=EDGE_CURVE('',#199,#195,#261,.T.);
#228=EDGE_CURVE('',#200,#199,#262,.T.);
#229=EDGE_CURVE('',#200,#196,#263,.T.);
#230=EDGE_CURVE('',#197,#200,#264,.T.);
#231=EDGE_CURVE('',#186,#197,#265,.T.);
#232=EDGE_CURVE('',#185,#198,#266,.T.);
#233=EDGE_CURVE('',#188,#199,#267,.T.);
#234=EDGE_CURVE('',#187,#200,#268,.T.);
#235=LINE('',#411,#269);
#236=LINE('',#414,#270);
#237=LINE('',#416,#271);
#238=LINE('',#418,#272);
#239=LINE('',#419,#273);
#240=LINE('',#422,#274);
#241=LINE('',#424,#275);
#242=LINE('',#426,#276);
#243=LINE('',#428,#277);
#244=LINE('',#431,#278);
#245=LINE('',#433,#279);
#246=LINE('',#435,#280);
#247=LINE('',#437,#281);
#248=LINE('',#439,#282);
#249=LINE('',#441,#283);
#250=LINE('',#443,#284);
#251=LINE('',#445,#285);
#252=LINE('',#447,#286);
#253=LINE('',#448,#287);
#254=LINE('',#450,#288);
#255=LINE('',#452,#289);
#256=LINE('',#455,#290);
#257=LINE('',#458,#291);
#258=LINE('',#460,#292);
#259=LINE('',#462,#293);
#260=LINE('',#464,#294);
#261=LINE('',#466,#295);
#262=LINE('',#468,#296);
#263=LINE('',#470,#297);
#264=LINE('',#472,#298);
#265=LINE('',#474,#299);
#266=LINE('',#475,#300);
#267=LINE('',#477,#301);
#268=LINE('',#479,#302);
#269=VECTOR('',#340,1.);
#270=VECTOR('',#341,1.);
#271=VECTOR('',#342,1.);
#272=VECTOR('',#343,1.);
#273=VECTOR('',#344,1.);
#274=VECTOR('',#345,1.);
#275=VECTOR('',#346,1.);
#276=VECTOR('',#347,1.);
#277=VECTOR('',#350,1.);
#278=VECTOR('',#351,1.);
#279=VECTOR('',#352,1.);
#280=VECTOR('',#353,1.);
#281=VECTOR('',#356,1.);
#282=VECTOR('',#357,1.);
#283=VECTOR('',#360,1.);
#284=VECTOR('',#361,1.);
#285=VECTOR('',#364,1.);
#286=VECTOR('',#367,1.);
#287=VECTOR('',#368,1.);
#288=VECTOR('',#371,1.);
#289=VECTOR('',#374,1.);
#290=VECTOR('',#379,1.);
#291=VECTOR('',#380,1.);
#292=VECTOR('',#381,1.);
#293=VECTOR('',#382,1.);
#294=VECTOR('',#385,1.);
#295=VECTOR('',#386,1.);
#296=VECTOR('',#389,1.);
#297=VECTOR('',#390,1.);
#298=VECTOR('',#393,1.);
#299=VECTOR('',#396,1.);
#300=VECTOR('',#397,1.);
#301=VECTOR('',#400,1.);
#302=VECTOR('',#403,1.);
#303=CURVE_STYLE('',#304,POSITIVE_LENGTH_MEASURE(0.7),#315);
#304=DRAUGHTING_PRE_DEFINED_CURVE_FONT('continuous');
#305=PRESENTATION_LAYER_ASSIGNMENT('61','Layer 61',(#409,#318));
#306=PRESENTATION_LAYER_ASSIGNMENT('1','Layer 1',(#41));
#307=STYLED_ITEM('',(#310),#409);
#308=STYLED_ITEM('',(#311),#318);
#309=STYLED_ITEM('',(#312),#41);
#310=PRESENTATION_STYLE_ASSIGNMENT((#313));
#311=PRESENTATION_STYLE_ASSIGNMENT((#303));
#312=PRESENTATION_STYLE_ASSIGNMENT((#36));
#313=POINT_STYLE('',#314,POSITIVE_LENGTH_MEASURE(3.),#315);
#314=PRE_DEFINED_POINT_MARKER_SYMBOL('plus');
#315=COLOUR_RGB('Medium Maroon',0.6,0.4,0.4);
#316=COLOUR_RGB('Medium Steel',0.596063172350652,0.666666666666667,0.686259250782025);
#317=AXIS2_PLACEMENT_3D('',#408,#336,#337);
#318=AXIS2_PLACEMENT_3D('',#410,#338,#339);
#319=AXIS2_PLACEMENT_3D('',#427,#348,#349);
#320=AXIS2_PLACEMENT_3D('',#436,#354,#355);
#321=AXIS2_PLACEMENT_3D('',#440,#358,#359);
#322=AXIS2_PLACEMENT_3D('',#444,#362,#363);
#323=AXIS2_PLACEMENT_3D('',#446,#365,#366);
#324=AXIS2_PLACEMENT_3D('',#449,#369,#370);
#325=AXIS2_PLACEMENT_3D('',#451,#372,#373);
#326=AXIS2_PLACEMENT_3D('',#453,#375,#376);
#327=AXIS2_PLACEMENT_3D('',#454,#377,#378);
#328=AXIS2_PLACEMENT_3D('',#463,#383,#384);
#329=AXIS2_PLACEMENT_3D('',#467,#387,#388);
#330=AXIS2_PLACEMENT_3D('',#471,#391,#392);
#331=AXIS2_PLACEMENT_3D('',#473,#394,#395);
#332=AXIS2_PLACEMENT_3D('',#476,#398,#399);
#333=AXIS2_PLACEMENT_3D('',#478,#401,#402);
#334=AXIS2_PLACEMENT_3D('',#480,#404,#405);
#335=AXIS2_PLACEMENT_3D('',#481,#406,#407);
#336=DIRECTION('',(0.,0.,1.));
#337=DIRECTION('',(1.,0.,0.));
#338=DIRECTION('',(0.,0.,1.));
#339=DIRECTION('',(1.,0.,0.));
#340=DIRECTION('',(0.,1.,0.));
#341=DIRECTION('',(1.,0.,0.));
#342=DIRECTION('',(0.,-1.,0.));
#343=DIRECTION('',(-1.,0.,0.));
#344=DIRECTION('',(1.,0.,0.));
#345=DIRECTION('',(0.,1.,0.));
#346=DIRECTION('',(-1.,0.,0.));
#347=DIRECTION('',(0.,-1.,0.));
#348=DIRECTION('',(0.,0.,-1.));
#349=DIRECTION('',(-1.,0.,0.));
#350=DIRECTION('',(1.,0.,0.));
#351=DIRECTION('',(0.661872232180212,0.661872232180212,0.351923708405055));
#352=DIRECTION('',(1.,0.,0.));
#353=DIRECTION('',(-0.661872232180212,0.661872232180212,0.351923708405055));
#354=DIRECTION('',(0.,-0.469471562785891,0.882947592858927));
#355=DIRECTION('',(0.,-0.882947592858927,-0.469471562785891));
#356=DIRECTION('',(0.661872232180212,-0.661872232180212,0.351923708405055));
#357=DIRECTION('',(0.,-1.,0.));
#358=DIRECTION('',(-0.469471562785891,0.,0.882947592858927));
#359=DIRECTION('',(0.882947592858927,0.,0.469471562785891));
#360=DIRECTION('',(-0.661872232180212,-0.661872232180212,0.351923708405055));
#361=DIRECTION('',(-1.,0.,0.));
#362=DIRECTION('',(0.,0.469471562785891,0.882947592858927));
#363=DIRECTION('',(0.,-0.882947592858927,0.469471562785891));
#364=DIRECTION('',(0.,1.,0.));
#365=DIRECTION('',(0.469471562785891,0.,0.882947592858927));
#366=DIRECTION('',(0.882947592858927,0.,-0.469471562785891));
#367=DIRECTION('',(0.,0.,1.));
#368=DIRECTION('',(0.,0.,1.));
#369=DIRECTION('',(0.,-1.,0.));
#370=DIRECTION('',(0.,0.,-1.));
#371=DIRECTION('',(0.,0.,1.));
#372=DIRECTION('',(-1.,0.,0.));
#373=DIRECTION('',(0.,0.,1.));
#374=DIRECTION('',(0.,0.,1.));
#375=DIRECTION('',(0.,1.,0.));
#376=DIRECTION('',(0.,0.,1.));
#377=DIRECTION('',(1.,0.,0.));
#378=DIRECTION('',(0.,0.,-1.));
#379=DIRECTION('',(1.,0.,0.));
#380=DIRECTION('',(-0.661872232180212,0.661872232180212,0.351923708405055));
#381=DIRECTION('',(1.,0.,0.));
#382=DIRECTION('',(0.661872232180212,0.661872232180212,0.351923708405055));
#383=DIRECTION('',(0.,-0.469471562785891,0.882947592858927));
#384=DIRECTION('',(0.,-0.882947592858927,-0.469471562785891));
#385=DIRECTION('',(0.,-1.,0.));
#386=DIRECTION('',(0.661872232180212,-0.661872232180212,0.351923708405055));
#387=DIRECTION('',(-0.469471562785891,0.,0.882947592858927));
#388=DIRECTION('',(0.882947592858927,0.,0.469471562785891));
#389=DIRECTION('',(-1.,0.,0.));
#390=DIRECTION('',(-0.661872232180212,-0.661872232180212,0.351923708405055));
#391=DIRECTION('',(0.,0.469471562785891,0.882947592858927));
#392=DIRECTION('',(0.,-0.882947592858927,0.469471562785891));
#393=DIRECTION('',(0.,1.,0.));
#394=DIRECTION('',(0.469471562785891,0.,0.882947592858927));
#395=DIRECTION('',(0.882947592858927,0.,-0.469471562785891));
#396=DIRECTION('',(0.,0.,1.));
#397=DIRECTION('',(0.,0.,1.));
#398=DIRECTION('',(0.,-1.,0.));
#399=DIRECTION('',(0.,0.,-1.));
#400=DIRECTION('',(0.,0.,1.));
#401=DIRECTION('',(-1.,0.,0.));
#402=DIRECTION('',(0.,0.,1.));
#403=DIRECTION('',(0.,0.,1.));
#404=DIRECTION('',(0.,1.,0.));
#405=DIRECTION('',(0.,0.,1.));
#406=DIRECTION('',(1.,0.,0.));
#407=DIRECTION('',(0.,0.,-1.));
#408=CARTESIAN_POINT('',(0.,0.,0.));
#409=CARTESIAN_POINT('',(0.,0.,0.));
#410=CARTESIAN_POINT('',(0.,0.,0.));
#411=CARTESIAN_POINT('',(40.,15.,0.));
#412=CARTESIAN_POINT('',(40.,0.,0.));
#413=CARTESIAN_POINT('',(40.,30.,0.));
#414=CARTESIAN_POINT('',(20.,0.,0.));
#415=CARTESIAN_POINT('',(0.,0.,0.));
#416=CARTESIAN_POINT('',(0.,15.,0.));
#417=CARTESIAN_POINT('',(0.,30.,0.));
#418=CARTESIAN_POINT('',(20.,30.,0.));
#419=CARTESIAN_POINT('',(20.,1.,0.));
#420=CARTESIAN_POINT('',(1.,1.,0.));
#421=CARTESIAN_POINT('',(39.,1.,0.));
#422=CARTESIAN_POINT('',(39.,15.,0.));
#423=CARTESIAN_POINT('',(39.,29.,0.));
#424=CARTESIAN_POINT('',(20.,29.,0.));
#425=CARTESIAN_POINT('',(1.,29.,0.));
#426=CARTESIAN_POINT('',(1.,15.,0.));
#427=CARTESIAN_POINT('',(20.,15.,0.));
#428=CARTESIAN_POINT('',(20.,15.,15.9756414749222));
#429=CARTESIAN_POINT('',(15.,15.,15.9756414749222));
#430=CARTESIAN_POINT('',(25.,15.,15.9756414749222));
#431=CARTESIAN_POINT('',(6.57112277596825,6.57112277596825,11.4939279565879));
#432=CARTESIAN_POINT('',(0.,0.,8.));
#433=CARTESIAN_POINT('',(20.,0.,8.));
#434=CARTESIAN_POINT('',(40.,0.,8.));
#435=CARTESIAN_POINT('',(31.2385029653757,8.76149703462434,12.6585706087838));
#436=CARTESIAN_POINT('',(20.,0.,8.));
#437=CARTESIAN_POINT('',(8.76149703462434,21.2385029653757,12.6585706087838));
#438=CARTESIAN_POINT('',(0.,30.,8.));
#439=CARTESIAN_POINT('',(0.,15.,8.));
#440=CARTESIAN_POINT('',(0.,15.,8.));
#441=CARTESIAN_POINT('',(33.4288772240317,23.4288772240317,11.4939279565879));
#442=CARTESIAN_POINT('',(40.,30.,8.));
#443=CARTESIAN_POINT('',(20.,30.,8.));
#444=CARTESIAN_POINT('',(20.,30.,8.));
#445=CARTESIAN_POINT('',(40.,15.,8.));
#446=CARTESIAN_POINT('',(40.,15.,8.));
#447=CARTESIAN_POINT('',(40.,0.,0.));
#448=CARTESIAN_POINT('',(0.,0.,0.));
#449=CARTESIAN_POINT('',(20.,0.,0.));
#450=CARTESIAN_POINT('',(0.,30.,0.));
#451=CARTESIAN_POINT('',(0.,15.,0.));
#452=CARTESIAN_POINT('',(40.,30.,0.));
#453=CARTESIAN_POINT('',(20.,30.,0.));
#454=CARTESIAN_POINT('',(40.,15.,0.));
#455=CARTESIAN_POINT('',(20.,15.,14.8430714242331));
#456=CARTESIAN_POINT('',(15.,15.,14.8430714242331));
#457=CARTESIAN_POINT('',(25.,15.,14.8430714242331));
#458=CARTESIAN_POINT('',(30.9746950878492,9.02530491215078,11.6662696947222));
#459=CARTESIAN_POINT('',(39.,1.,7.39913938097244));
#460=CARTESIAN_POINT('',(20.,1.,7.39913938097244));
#461=CARTESIAN_POINT('',(1.,1.,7.39913938097244));
#462=CARTESIAN_POINT('',(6.83493065349469,6.83493065349469,10.5016270425262));
#463=CARTESIAN_POINT('',(20.,0.469471562785891,7.11705240714107));
#464=CARTESIAN_POINT('',(1.,15.,7.39913938097244));
#465=CARTESIAN_POINT('',(1.,29.,7.39913938097244));
#466=CARTESIAN_POINT('',(9.02530491215078,20.9746950878492,11.6662696947222));
#467=CARTESIAN_POINT('',(0.469471562785891,15.,7.11705240714107));
#468=CARTESIAN_POINT('',(20.,29.,7.39913938097244));
#469=CARTESIAN_POINT('',(39.,29.,7.39913938097244));
#470=CARTESIAN_POINT('',(33.1650693465053,23.1650693465053,10.5016270425262));
#471=CARTESIAN_POINT('',(20.,29.5305284372141,7.11705240714107));
#472=CARTESIAN_POINT('',(39.,15.,7.39913938097244));
#473=CARTESIAN_POINT('',(39.5305284372141,15.,7.11705240714107));
#474=CARTESIAN_POINT('',(39.,1.,0.));
#475=CARTESIAN_POINT('',(1.,1.,0.));
#476=CARTESIAN_POINT('',(20.,1.,0.));
#477=CARTESIAN_POINT('',(1.,29.,0.));
#478=CARTESIAN_POINT('',(1.,15.,0.));
#479=CARTESIAN_POINT('',(39.,29.,0.));
#480=CARTESIAN_POINT('',(20.,29.,0.));
#481=CARTESIAN_POINT('',(39.,15.,0.));
#482=MECHANICAL_DESIGN_GEOMETRIC_PRESENTATION_REPRESENTATION('',(#307,#308,
#309),#483);
#483=(
GEOMETRIC_REPRESENTATION_CONTEXT(3)
GLOBAL_UNCERTAINTY_ASSIGNED_CONTEXT((#484))
GLOBAL_UNIT_ASSIGNED_CONTEXT((#490,#486,#485))
REPRESENTATION_CONTEXT('2141_Cosch_Edelstahltechnik',
'TOP_LEVEL_ASSEMBLY_PART')
);
#484=UNCERTAINTY_MEASURE_WITH_UNIT(LENGTH_MEASURE(2.E-5),#490,
'DISTANCE_ACCURACY_VALUE','Maximum Tolerance applied to model');
#485=(
NAMED_UNIT(*)
SI_UNIT($,.STERADIAN.)
SOLID_ANGLE_UNIT()
);
#486=(
CONVERSION_BASED_UNIT('DEGREE',#488)
NAMED_UNIT(#487)
PLANE_ANGLE_UNIT()
);
#487=DIMENSIONAL_EXPONENTS(0.,0.,0.,0.,0.,0.,0.);
#488=PLANE_ANGLE_MEASURE_WITH_UNIT(PLANE_ANGLE_MEASURE(0.0174532925),#489);
#489=(
NAMED_UNIT(*)
PLANE_ANGLE_UNIT()
SI_UNIT($,.RADIAN.)
);
#490=(
LENGTH_UNIT()
NAMED_UNIT(*)
SI_UNIT(.MILLI.,.METRE.)
);
ENDSEC;
END-ISO-10303-21;
