ISO-10303-21;
HEADER;
/* Generated by software containing ST-Developer
 * from STEP Tools, Inc. (www.steptools.com) 
 */
/* OPTION: using custom schema-name function */

FILE_DESCRIPTION(
/* description */ (''),
/* implementation_level */ '2;1');

FILE_NAME(
/* name */ '166-30-V4A-M8_Cosch_Edelstahltechnik.stp',
/* time_stamp */ '2018-11-17T18:03:46+01:00',
/* author */ (''),
/* organization */ (''),
/* preprocessor_version */ 'ST-DEVELOPER v16',
/* originating_system */ 'SIEMENS PLM Software NX 11.0',
/* authorisation */ '');

FILE_SCHEMA (('AUTOMOTIVE_DESIGN { 1 0 10303 214 3 1 1 1 }'));
ENDSEC;

DATA;
#10=CONSTRUCTIVE_GEOMETRY_REPRESENTATION_RELATIONSHIP(
'supplemental geometry','',#34,#11);
#11=CONSTRUCTIVE_GEOMETRY_REPRESENTATION('supplemental geometry',(#302),
#457);
#12=GEOMETRICALLY_BOUNDED_WIREFRAME_SHAPE_REPRESENTATION(
'Goge239860DCck7t-None',(#35),#457);
#13=PROPERTY_DEFINITION_REPRESENTATION(#17,#15);
#14=PROPERTY_DEFINITION_REPRESENTATION(#18,#16);
#15=REPRESENTATION('',(#19),#457);
#16=REPRESENTATION('',(#20),#457);
#17=PROPERTY_DEFINITION('pmi validation property','',#25);
#18=PROPERTY_DEFINITION('pmi validation property','',#25);
#19=VALUE_REPRESENTATION_ITEM('number of annotations',COUNT_MEASURE(0.));
#20=VALUE_REPRESENTATION_ITEM('number of views',COUNT_MEASURE(0.));
#21=SHAPE_REPRESENTATION_RELATIONSHIP('None',
'relationship between Goge239860DCck7t-None and Goge239860DCck7t-None',
#34,#23);
#22=SHAPE_REPRESENTATION_RELATIONSHIP('None',
'relationship between Goge239860DCck7t-None and Goge239860DCck7t-None',
#34,#12);
#23=ADVANCED_BREP_SHAPE_REPRESENTATION('Goge239860DCck7t-None',(#41),#457);
#24=SHAPE_DEFINITION_REPRESENTATION(#25,#34);
#25=PRODUCT_DEFINITION_SHAPE('','',#26);
#26=PRODUCT_DEFINITION(' ','',#28,#27);
#27=PRODUCT_DEFINITION_CONTEXT('part definition',#33,'design');
#28=PRODUCT_DEFINITION_FORMATION_WITH_SPECIFIED_SOURCE(' ',' ',#30,
 .NOT_KNOWN.);
#29=PRODUCT_RELATED_PRODUCT_CATEGORY('part','',(#30));
#30=PRODUCT('Goge239860DCck7t','Goge239860DCck7t',' ',(#31));
#31=PRODUCT_CONTEXT(' ',#33,'mechanical');
#32=APPLICATION_PROTOCOL_DEFINITION('international standard',
'automotive_design',2010,#33);
#33=APPLICATION_CONTEXT(
'core data for automotive mechanical design processes');
#34=SHAPE_REPRESENTATION('Goge239860DCck7t-None',(#301),#457);
#35=GEOMETRIC_CURVE_SET('None',(#386));
#36=SURFACE_STYLE_USAGE(.BOTH.,#37);
#37=SURFACE_SIDE_STYLE('',(#38));
#38=SURFACE_STYLE_FILL_AREA(#39);
#39=FILL_AREA_STYLE('',(#40));
#40=FILL_AREA_STYLE_COLOUR('',#300);
#41=MANIFOLD_SOLID_BREP('',#42);
#42=CLOSED_SHELL('',(#56,#57,#58,#59,#60,#61,#62,#63,#64,#65,#66,#67,#68,
#69));
#43=CYLINDRICAL_SURFACE('',#318,2.72011474937612);
#44=CIRCLE('',#309,2.72011474937612);
#45=CIRCLE('',#316,2.72011474937612);
#46=FACE_OUTER_BOUND('',#93,.T.);
#47=FACE_OUTER_BOUND('',#94,.T.);
#48=FACE_OUTER_BOUND('',#95,.T.);
#49=FACE_OUTER_BOUND('',#96,.T.);
#50=FACE_OUTER_BOUND('',#97,.T.);
#51=FACE_OUTER_BOUND('',#100,.T.);
#52=FACE_OUTER_BOUND('',#101,.T.);
#53=FACE_OUTER_BOUND('',#102,.T.);
#54=FACE_OUTER_BOUND('',#103,.T.);
#55=FACE_OUTER_BOUND('',#104,.T.);
#56=ADVANCED_FACE('',(#83,#84),#70,.T.);
#57=ADVANCED_FACE('',(#46),#71,.T.);
#58=ADVANCED_FACE('',(#47),#72,.T.);
#59=ADVANCED_FACE('',(#48),#73,.T.);
#60=ADVANCED_FACE('',(#49),#74,.T.);
#61=ADVANCED_FACE('',(#50),#75,.T.);
#62=ADVANCED_FACE('',(#85,#86),#76,.T.);
#63=ADVANCED_FACE('',(#51),#77,.F.);
#64=ADVANCED_FACE('',(#52),#78,.F.);
#65=ADVANCED_FACE('',(#53),#79,.F.);
#66=ADVANCED_FACE('',(#54),#80,.F.);
#67=ADVANCED_FACE('',(#55),#81,.F.);
#68=ADVANCED_FACE('',(#87,#88),#82,.F.);
#69=ADVANCED_FACE('',(#89,#90),#43,.F.);
#70=PLANE('',#303);
#71=PLANE('',#304);
#72=PLANE('',#305);
#73=PLANE('',#306);
#74=PLANE('',#307);
#75=PLANE('',#308);
#76=PLANE('',#310);
#77=PLANE('',#311);
#78=PLANE('',#312);
#79=PLANE('',#313);
#80=PLANE('',#314);
#81=PLANE('',#315);
#82=PLANE('',#317);
#83=FACE_BOUND('',#91,.T.);
#84=FACE_BOUND('',#92,.T.);
#85=FACE_BOUND('',#98,.T.);
#86=FACE_BOUND('',#99,.T.);
#87=FACE_BOUND('',#105,.T.);
#88=FACE_BOUND('',#106,.T.);
#89=FACE_BOUND('',#107,.T.);
#90=FACE_BOUND('',#108,.T.);
#91=EDGE_LOOP('',(#109,#110,#111,#112));
#92=EDGE_LOOP('',(#113,#114,#115,#116));
#93=EDGE_LOOP('',(#117,#118,#119,#120,#121));
#94=EDGE_LOOP('',(#122,#123,#124,#125,#126));
#95=EDGE_LOOP('',(#127,#128,#129,#130,#131));
#96=EDGE_LOOP('',(#132,#133,#134,#135));
#97=EDGE_LOOP('',(#136,#137,#138,#139));
#98=EDGE_LOOP('',(#140));
#99=EDGE_LOOP('',(#141,#142,#143));
#100=EDGE_LOOP('',(#144,#145,#146,#147,#148));
#101=EDGE_LOOP('',(#149,#150,#151,#152,#153));
#102=EDGE_LOOP('',(#154,#155,#156,#157,#158));
#103=EDGE_LOOP('',(#159,#160,#161,#162));
#104=EDGE_LOOP('',(#163,#164,#165,#166));
#105=EDGE_LOOP('',(#167));
#106=EDGE_LOOP('',(#168,#169,#170));
#107=EDGE_LOOP('',(#171));
#108=EDGE_LOOP('',(#172));
#109=ORIENTED_EDGE('',*,*,#195,.F.);
#110=ORIENTED_EDGE('',*,*,#196,.F.);
#111=ORIENTED_EDGE('',*,*,#197,.F.);
#112=ORIENTED_EDGE('',*,*,#198,.F.);
#113=ORIENTED_EDGE('',*,*,#199,.T.);
#114=ORIENTED_EDGE('',*,*,#200,.T.);
#115=ORIENTED_EDGE('',*,*,#201,.T.);
#116=ORIENTED_EDGE('',*,*,#202,.T.);
#117=ORIENTED_EDGE('',*,*,#203,.T.);
#118=ORIENTED_EDGE('',*,*,#204,.F.);
#119=ORIENTED_EDGE('',*,*,#205,.F.);
#120=ORIENTED_EDGE('',*,*,#206,.F.);
#121=ORIENTED_EDGE('',*,*,#207,.F.);
#122=ORIENTED_EDGE('',*,*,#208,.T.);
#123=ORIENTED_EDGE('',*,*,#209,.T.);
#124=ORIENTED_EDGE('',*,*,#207,.T.);
#125=ORIENTED_EDGE('',*,*,#210,.F.);
#126=ORIENTED_EDGE('',*,*,#196,.T.);
#127=ORIENTED_EDGE('',*,*,#204,.T.);
#128=ORIENTED_EDGE('',*,*,#211,.T.);
#129=ORIENTED_EDGE('',*,*,#208,.F.);
#130=ORIENTED_EDGE('',*,*,#195,.T.);
#131=ORIENTED_EDGE('',*,*,#212,.T.);
#132=ORIENTED_EDGE('',*,*,#210,.T.);
#133=ORIENTED_EDGE('',*,*,#206,.T.);
#134=ORIENTED_EDGE('',*,*,#213,.F.);
#135=ORIENTED_EDGE('',*,*,#197,.T.);
#136=ORIENTED_EDGE('',*,*,#213,.T.);
#137=ORIENTED_EDGE('',*,*,#205,.T.);
#138=ORIENTED_EDGE('',*,*,#212,.F.);
#139=ORIENTED_EDGE('',*,*,#198,.T.);
#140=ORIENTED_EDGE('',*,*,#214,.T.);
#141=ORIENTED_EDGE('',*,*,#209,.F.);
#142=ORIENTED_EDGE('',*,*,#211,.F.);
#143=ORIENTED_EDGE('',*,*,#203,.F.);
#144=ORIENTED_EDGE('',*,*,#215,.F.);
#145=ORIENTED_EDGE('',*,*,#216,.T.);
#146=ORIENTED_EDGE('',*,*,#217,.T.);
#147=ORIENTED_EDGE('',*,*,#218,.T.);
#148=ORIENTED_EDGE('',*,*,#219,.T.);
#149=ORIENTED_EDGE('',*,*,#220,.F.);
#150=ORIENTED_EDGE('',*,*,#199,.F.);
#151=ORIENTED_EDGE('',*,*,#221,.T.);
#152=ORIENTED_EDGE('',*,*,#216,.F.);
#153=ORIENTED_EDGE('',*,*,#222,.F.);
#154=ORIENTED_EDGE('',*,*,#223,.F.);
#155=ORIENTED_EDGE('',*,*,#219,.F.);
#156=ORIENTED_EDGE('',*,*,#224,.F.);
#157=ORIENTED_EDGE('',*,*,#200,.F.);
#158=ORIENTED_EDGE('',*,*,#220,.T.);
#159=ORIENTED_EDGE('',*,*,#221,.F.);
#160=ORIENTED_EDGE('',*,*,#202,.F.);
#161=ORIENTED_EDGE('',*,*,#225,.T.);
#162=ORIENTED_EDGE('',*,*,#217,.F.);
#163=ORIENTED_EDGE('',*,*,#225,.F.);
#164=ORIENTED_EDGE('',*,*,#201,.F.);
#165=ORIENTED_EDGE('',*,*,#224,.T.);
#166=ORIENTED_EDGE('',*,*,#218,.F.);
#167=ORIENTED_EDGE('',*,*,#226,.F.);
#168=ORIENTED_EDGE('',*,*,#222,.T.);
#169=ORIENTED_EDGE('',*,*,#215,.T.);
#170=ORIENTED_EDGE('',*,*,#223,.T.);
#171=ORIENTED_EDGE('',*,*,#214,.F.);
#172=ORIENTED_EDGE('',*,*,#226,.T.);
#173=VERTEX_POINT('',#389);
#174=VERTEX_POINT('',#390);
#175=VERTEX_POINT('',#392);
#176=VERTEX_POINT('',#394);
#177=VERTEX_POINT('',#397);
#178=VERTEX_POINT('',#398);
#179=VERTEX_POINT('',#400);
#180=VERTEX_POINT('',#402);
#181=VERTEX_POINT('',#406);
#182=VERTEX_POINT('',#407);
#183=VERTEX_POINT('',#409);
#184=VERTEX_POINT('',#411);
#185=VERTEX_POINT('',#413);
#186=VERTEX_POINT('',#417);
#187=VERTEX_POINT('',#428);
#188=VERTEX_POINT('',#431);
#189=VERTEX_POINT('',#432);
#190=VERTEX_POINT('',#434);
#191=VERTEX_POINT('',#436);
#192=VERTEX_POINT('',#438);
#193=VERTEX_POINT('',#442);
#194=VERTEX_POINT('',#453);
#195=EDGE_CURVE('',#173,#174,#227,.T.);
#196=EDGE_CURVE('',#175,#173,#228,.T.);
#197=EDGE_CURVE('',#176,#175,#229,.T.);
#198=EDGE_CURVE('',#174,#176,#230,.T.);
#199=EDGE_CURVE('',#177,#178,#231,.T.);
#200=EDGE_CURVE('',#178,#179,#232,.T.);
#201=EDGE_CURVE('',#179,#180,#233,.T.);
#202=EDGE_CURVE('',#180,#177,#234,.T.);
#203=EDGE_CURVE('',#181,#182,#235,.T.);
#204=EDGE_CURVE('',#183,#182,#236,.T.);
#205=EDGE_CURVE('',#184,#183,#237,.T.);
#206=EDGE_CURVE('',#185,#184,#238,.T.);
#207=EDGE_CURVE('',#181,#185,#239,.T.);
#208=EDGE_CURVE('',#173,#186,#240,.T.);
#209=EDGE_CURVE('',#186,#181,#241,.T.);
#210=EDGE_CURVE('',#175,#185,#242,.T.);
#211=EDGE_CURVE('',#182,#186,#243,.T.);
#212=EDGE_CURVE('',#174,#183,#244,.T.);
#213=EDGE_CURVE('',#176,#184,#245,.T.);
#214=EDGE_CURVE('',#187,#187,#44,.T.);
#215=EDGE_CURVE('',#188,#189,#246,.T.);
#216=EDGE_CURVE('',#188,#190,#247,.T.);
#217=EDGE_CURVE('',#190,#191,#248,.T.);
#218=EDGE_CURVE('',#191,#192,#249,.T.);
#219=EDGE_CURVE('',#192,#189,#250,.T.);
#220=EDGE_CURVE('',#178,#193,#251,.T.);
#221=EDGE_CURVE('',#177,#190,#252,.T.);
#222=EDGE_CURVE('',#193,#188,#253,.T.);
#223=EDGE_CURVE('',#189,#193,#254,.T.);
#224=EDGE_CURVE('',#179,#192,#255,.T.);
#225=EDGE_CURVE('',#180,#191,#256,.T.);
#226=EDGE_CURVE('',#194,#194,#45,.T.);
#227=LINE('',#388,#257);
#228=LINE('',#391,#258);
#229=LINE('',#393,#259);
#230=LINE('',#395,#260);
#231=LINE('',#396,#261);
#232=LINE('',#399,#262);
#233=LINE('',#401,#263);
#234=LINE('',#403,#264);
#235=LINE('',#405,#265);
#236=LINE('',#408,#266);
#237=LINE('',#410,#267);
#238=LINE('',#412,#268);
#239=LINE('',#414,#269);
#240=LINE('',#416,#270);
#241=LINE('',#418,#271);
#242=LINE('',#419,#272);
#243=LINE('',#421,#273);
#244=LINE('',#422,#274);
#245=LINE('',#424,#275);
#246=LINE('',#430,#276);
#247=LINE('',#433,#277);
#248=LINE('',#435,#278);
#249=LINE('',#437,#279);
#250=LINE('',#439,#280);
#251=LINE('',#441,#281);
#252=LINE('',#443,#282);
#253=LINE('',#444,#283);
#254=LINE('',#446,#284);
#255=LINE('',#447,#285);
#256=LINE('',#449,#286);
#257=VECTOR('',#323,1.);
#258=VECTOR('',#324,1.);
#259=VECTOR('',#325,1.);
#260=VECTOR('',#326,1.);
#261=VECTOR('',#327,1.);
#262=VECTOR('',#328,1.);
#263=VECTOR('',#329,1.);
#264=VECTOR('',#330,1.);
#265=VECTOR('',#333,1.);
#266=VECTOR('',#334,1.);
#267=VECTOR('',#335,1.);
#268=VECTOR('',#336,1.);
#269=VECTOR('',#337,1.);
#270=VECTOR('',#340,1.);
#271=VECTOR('',#341,1.);
#272=VECTOR('',#342,1.);
#273=VECTOR('',#345,1.);
#274=VECTOR('',#346,1.);
#275=VECTOR('',#349,1.);
#276=VECTOR('',#358,1.);
#277=VECTOR('',#359,1.);
#278=VECTOR('',#360,1.);
#279=VECTOR('',#361,1.);
#280=VECTOR('',#362,1.);
#281=VECTOR('',#365,1.);
#282=VECTOR('',#366,1.);
#283=VECTOR('',#367,1.);
#284=VECTOR('',#370,1.);
#285=VECTOR('',#371,1.);
#286=VECTOR('',#374,1.);
#287=CURVE_STYLE('',#288,POSITIVE_LENGTH_MEASURE(0.7),#299);
#288=DRAUGHTING_PRE_DEFINED_CURVE_FONT('continuous');
#289=PRESENTATION_LAYER_ASSIGNMENT('61','Layer 61',(#386,#302));
#290=PRESENTATION_LAYER_ASSIGNMENT('1','Layer 1',(#41));
#291=STYLED_ITEM('',(#294),#386);
#292=STYLED_ITEM('',(#295),#302);
#293=STYLED_ITEM('',(#296),#41);
#294=PRESENTATION_STYLE_ASSIGNMENT((#297));
#295=PRESENTATION_STYLE_ASSIGNMENT((#287));
#296=PRESENTATION_STYLE_ASSIGNMENT((#36));
#297=POINT_STYLE('',#298,POSITIVE_LENGTH_MEASURE(3.),#299);
#298=PRE_DEFINED_POINT_MARKER_SYMBOL('plus');
#299=COLOUR_RGB('Medium Maroon',0.6,0.4,0.4);
#300=COLOUR_RGB('Medium Steel',0.596063172350652,0.666666666666667,0.686259250782025);
#301=AXIS2_PLACEMENT_3D('',#385,#319,#320);
#302=AXIS2_PLACEMENT_3D('',#387,#321,#322);
#303=AXIS2_PLACEMENT_3D('',#404,#331,#332);
#304=AXIS2_PLACEMENT_3D('',#415,#338,#339);
#305=AXIS2_PLACEMENT_3D('',#420,#343,#344);
#306=AXIS2_PLACEMENT_3D('',#423,#347,#348);
#307=AXIS2_PLACEMENT_3D('',#425,#350,#351);
#308=AXIS2_PLACEMENT_3D('',#426,#352,#353);
#309=AXIS2_PLACEMENT_3D('',#427,#354,#355);
#310=AXIS2_PLACEMENT_3D('',#429,#356,#357);
#311=AXIS2_PLACEMENT_3D('',#440,#363,#364);
#312=AXIS2_PLACEMENT_3D('',#445,#368,#369);
#313=AXIS2_PLACEMENT_3D('',#448,#372,#373);
#314=AXIS2_PLACEMENT_3D('',#450,#375,#376);
#315=AXIS2_PLACEMENT_3D('',#451,#377,#378);
#316=AXIS2_PLACEMENT_3D('',#452,#379,#380);
#317=AXIS2_PLACEMENT_3D('',#454,#381,#382);
#318=AXIS2_PLACEMENT_3D('',#455,#383,#384);
#319=DIRECTION('',(0.,0.,1.));
#320=DIRECTION('',(1.,0.,0.));
#321=DIRECTION('',(0.,0.,1.));
#322=DIRECTION('',(1.,0.,0.));
#323=DIRECTION('',(0.,1.,0.));
#324=DIRECTION('',(1.,0.,0.));
#325=DIRECTION('',(0.,-1.,0.));
#326=DIRECTION('',(-1.,0.,0.));
#327=DIRECTION('',(1.,0.,0.));
#328=DIRECTION('',(0.,1.,0.));
#329=DIRECTION('',(-1.,0.,0.));
#330=DIRECTION('',(0.,-1.,0.));
#331=DIRECTION('',(0.,0.,-1.));
#332=DIRECTION('',(-1.,0.,0.));
#333=DIRECTION('',(0.707106781186547,0.707106781186547,0.));
#334=DIRECTION('',(0.,-1.,0.));
#335=DIRECTION('',(1.,0.,0.));
#336=DIRECTION('',(0.,1.,0.));
#337=DIRECTION('',(-1.,0.,0.));
#338=DIRECTION('',(0.,0.,1.));
#339=DIRECTION('',(1.,0.,0.));
#340=DIRECTION('',(0.,0.,1.));
#341=DIRECTION('',(-0.707106781186547,0.,0.707106781186547));
#342=DIRECTION('',(0.,0.,1.));
#343=DIRECTION('',(0.,-1.,0.));
#344=DIRECTION('',(0.,0.,-1.));
#345=DIRECTION('',(0.,-0.707106781186547,-0.707106781186547));
#346=DIRECTION('',(0.,0.,1.));
#347=DIRECTION('',(1.,0.,0.));
#348=DIRECTION('',(0.,0.,-1.));
#349=DIRECTION('',(0.,0.,1.));
#350=DIRECTION('',(-1.,0.,0.));
#351=DIRECTION('',(0.,0.,1.));
#352=DIRECTION('',(0.,1.,0.));
#353=DIRECTION('',(0.,0.,1.));
#354=DIRECTION('',(-0.577350269189626,0.577350269189626,-0.577350269189626));
#355=DIRECTION('',(0.707106781186547,0.,-0.707106781186547));
#356=DIRECTION('',(0.577350269189626,-0.577350269189626,0.577350269189626));
#357=DIRECTION('',(0.707106781186547,0.,-0.707106781186547));
#358=DIRECTION('',(0.707106781186547,0.707106781186547,0.));
#359=DIRECTION('',(-1.,0.,0.));
#360=DIRECTION('',(0.,1.,0.));
#361=DIRECTION('',(1.,0.,0.));
#362=DIRECTION('',(0.,-1.,0.));
#363=DIRECTION('',(0.,0.,1.));
#364=DIRECTION('',(1.,0.,0.));
#365=DIRECTION('',(0.,0.,1.));
#366=DIRECTION('',(0.,0.,1.));
#367=DIRECTION('',(-0.707106781186547,0.,0.707106781186547));
#368=DIRECTION('',(0.,-1.,0.));
#369=DIRECTION('',(0.,0.,-1.));
#370=DIRECTION('',(0.,-0.707106781186547,-0.707106781186547));
#371=DIRECTION('',(0.,0.,1.));
#372=DIRECTION('',(1.,0.,0.));
#373=DIRECTION('',(0.,0.,-1.));
#374=DIRECTION('',(0.,0.,1.));
#375=DIRECTION('',(-1.,0.,0.));
#376=DIRECTION('',(0.,0.,1.));
#377=DIRECTION('',(0.,1.,0.));
#378=DIRECTION('',(0.,0.,1.));
#379=DIRECTION('',(-0.577350269189626,0.577350269189626,-0.577350269189626));
#380=DIRECTION('',(0.707106781186547,0.,-0.707106781186547));
#381=DIRECTION('',(0.577350269189626,-0.577350269189626,0.577350269189626));
#382=DIRECTION('',(0.707106781186547,0.,-0.707106781186547));
#383=DIRECTION('',(0.577350269189626,-0.577350269189626,0.577350269189626));
#384=DIRECTION('',(0.707106781186547,0.,-0.707106781186547));
#385=CARTESIAN_POINT('',(0.,0.,0.));
#386=CARTESIAN_POINT('',(0.,0.,0.));
#387=CARTESIAN_POINT('',(0.,0.,0.));
#388=CARTESIAN_POINT('',(50.,25.,0.));
#389=CARTESIAN_POINT('',(50.,0.,0.));
#390=CARTESIAN_POINT('',(50.,50.,0.));
#391=CARTESIAN_POINT('',(25.,0.,0.));
#392=CARTESIAN_POINT('',(0.,0.,0.));
#393=CARTESIAN_POINT('',(0.,25.,0.));
#394=CARTESIAN_POINT('',(0.,50.,0.));
#395=CARTESIAN_POINT('',(25.,50.,0.));
#396=CARTESIAN_POINT('',(25.,1.5,0.));
#397=CARTESIAN_POINT('',(1.5,1.5,0.));
#398=CARTESIAN_POINT('',(48.5,1.5,0.));
#399=CARTESIAN_POINT('',(48.5,25.,0.));
#400=CARTESIAN_POINT('',(48.5,48.5,0.));
#401=CARTESIAN_POINT('',(25.,48.5,0.));
#402=CARTESIAN_POINT('',(1.5,48.5,0.));
#403=CARTESIAN_POINT('',(1.5,25.,0.));
#404=CARTESIAN_POINT('',(25.,25.,0.));
#405=CARTESIAN_POINT('',(43.5048094716167,6.49519052838328,50.));
#406=CARTESIAN_POINT('',(37.0096189432334,0.,50.));
#407=CARTESIAN_POINT('',(50.,12.9903810567666,50.));
#408=CARTESIAN_POINT('',(50.,25.,50.));
#409=CARTESIAN_POINT('',(50.,50.,50.));
#410=CARTESIAN_POINT('',(25.,50.,50.));
#411=CARTESIAN_POINT('',(0.,50.,50.));
#412=CARTESIAN_POINT('',(0.,25.,50.));
#413=CARTESIAN_POINT('',(0.,0.,50.));
#414=CARTESIAN_POINT('',(25.,0.,50.));
#415=CARTESIAN_POINT('',(25.,25.,50.));
#416=CARTESIAN_POINT('',(50.,0.,0.));
#417=CARTESIAN_POINT('',(50.,-4.33680868994202E-16,37.0096189432334));
#418=CARTESIAN_POINT('',(56.0048094716167,0.,31.0048094716167));
#419=CARTESIAN_POINT('',(0.,0.,0.));
#420=CARTESIAN_POINT('',(25.,0.,0.));
#421=CARTESIAN_POINT('',(50.,-6.00480947161671,31.0048094716167));
#422=CARTESIAN_POINT('',(50.,50.,0.));
#423=CARTESIAN_POINT('',(50.,25.,0.));
#424=CARTESIAN_POINT('',(0.,50.,0.));
#425=CARTESIAN_POINT('',(0.,25.,0.));
#426=CARTESIAN_POINT('',(25.,50.,0.));
#427=CARTESIAN_POINT('',(45.6698729810778,4.33012701892222,45.6698729810778));
#428=CARTESIAN_POINT('',(47.5932845659672,4.33012701892222,43.7464613961884));
#429=CARTESIAN_POINT('',(29.0032063144111,-29.0032063144111,29.0032063144111));
#430=CARTESIAN_POINT('',(42.9557713659401,7.04422863405994,48.5));
#431=CARTESIAN_POINT('',(37.4115427318801,1.5,48.5));
#432=CARTESIAN_POINT('',(48.5,12.5884572681199,48.5));
#433=CARTESIAN_POINT('',(25.,1.5,48.5));
#434=CARTESIAN_POINT('',(1.5,1.5,48.5));
#435=CARTESIAN_POINT('',(1.5,25.,48.5));
#436=CARTESIAN_POINT('',(1.5,48.5,48.5));
#437=CARTESIAN_POINT('',(25.,48.5,48.5));
#438=CARTESIAN_POINT('',(48.5,48.5,48.5));
#439=CARTESIAN_POINT('',(48.5,25.,48.5));
#440=CARTESIAN_POINT('',(25.,25.,48.5));
#441=CARTESIAN_POINT('',(48.5,1.5,0.));
#442=CARTESIAN_POINT('',(48.5,1.5,37.4115427318801));
#443=CARTESIAN_POINT('',(1.5,1.5,0.));
#444=CARTESIAN_POINT('',(55.4557713659401,1.5,30.4557713659401));
#445=CARTESIAN_POINT('',(25.,1.5,0.));
#446=CARTESIAN_POINT('',(48.5,-5.45577136594006,30.4557713659401));
#447=CARTESIAN_POINT('',(48.5,48.5,0.));
#448=CARTESIAN_POINT('',(48.5,25.,0.));
#449=CARTESIAN_POINT('',(1.5,48.5,0.));
#450=CARTESIAN_POINT('',(1.5,25.,0.));
#451=CARTESIAN_POINT('',(25.,48.5,0.));
#452=CARTESIAN_POINT('',(44.8038475772934,5.19615242270666,44.8038475772934));
#453=CARTESIAN_POINT('',(46.7272591621828,5.19615242270666,42.880435992404));
#454=CARTESIAN_POINT('',(28.1371809106267,-28.1371809106267,28.1371809106267));
#455=CARTESIAN_POINT('',(38.7416697508024,11.2583302491977,38.7416697508024));
#456=MECHANICAL_DESIGN_GEOMETRIC_PRESENTATION_REPRESENTATION('',(#291,#292,
#293),#457);
#457=(
GEOMETRIC_REPRESENTATION_CONTEXT(3)
GLOBAL_UNCERTAINTY_ASSIGNED_CONTEXT((#458))
GLOBAL_UNIT_ASSIGNED_CONTEXT((#464,#460,#459))
REPRESENTATION_CONTEXT('166-30-V4A-M8_Cosch_Edelstahltechnik',
'TOP_LEVEL_ASSEMBLY_PART')
);
#458=UNCERTAINTY_MEASURE_WITH_UNIT(LENGTH_MEASURE(2.E-5),#464,
'DISTANCE_ACCURACY_VALUE','Maximum Tolerance applied to model');
#459=(
NAMED_UNIT(*)
SI_UNIT($,.STERADIAN.)
SOLID_ANGLE_UNIT()
);
#460=(
CONVERSION_BASED_UNIT('DEGREE',#462)
NAMED_UNIT(#461)
PLANE_ANGLE_UNIT()
);
#461=DIMENSIONAL_EXPONENTS(0.,0.,0.,0.,0.,0.,0.);
#462=PLANE_ANGLE_MEASURE_WITH_UNIT(PLANE_ANGLE_MEASURE(0.0174532925),#463);
#463=(
NAMED_UNIT(*)
PLANE_ANGLE_UNIT()
SI_UNIT($,.RADIAN.)
);
#464=(
LENGTH_UNIT()
NAMED_UNIT(*)
SI_UNIT(.MILLI.,.METRE.)
);
ENDSEC;
END-ISO-10303-21;
