ISO-10303-21;
HEADER;
FILE_DESCRIPTION((''),'2;1');
FILE_NAME('2977','2022-04-18T12:17:14',('Gogel'),
('Gerresheimer Regensburg GmbH'),'CREO PARAMETRIC BY PTC INC, 2018420',
'CREO PARAMETRIC BY PTC INC, 2018420','');
FILE_SCHEMA(('AUTOMOTIVE_DESIGN { 1 0 10303 214 1 1 1 1 }'));
ENDSEC;
DATA;
#46=DIRECTION('',(1.E0,0.E0,0.E0));
#47=VECTOR('',#46,3.E1);
#48=CARTESIAN_POINT('',(-1.5E1,0.E0,0.E0));
#49=LINE('',#48,#47);
#50=DIRECTION('',(0.E0,-1.E0,0.E0));
#51=VECTOR('',#50,8.5E1);
#52=CARTESIAN_POINT('',(-1.5E1,8.5E1,0.E0));
#53=LINE('',#52,#51);
#54=CARTESIAN_POINT('',(0.E0,8.5E1,0.E0));
#55=DIRECTION('',(0.E0,0.E0,1.E0));
#56=DIRECTION('',(1.E0,0.E0,0.E0));
#57=AXIS2_PLACEMENT_3D('',#54,#55,#56);
#59=DIRECTION('',(0.E0,1.E0,0.E0));
#60=VECTOR('',#59,8.5E1);
#61=CARTESIAN_POINT('',(1.5E1,0.E0,0.E0));
#62=LINE('',#61,#60);
#63=CARTESIAN_POINT('',(0.E0,6.9E1,0.E0));
#64=DIRECTION('',(0.E0,0.E0,-1.E0));
#65=DIRECTION('',(1.E0,0.E0,0.E0));
#66=AXIS2_PLACEMENT_3D('',#63,#64,#65);
#68=DIRECTION('',(0.E0,-1.E0,0.E0));
#69=VECTOR('',#68,1.6E1);
#70=CARTESIAN_POINT('',(4.5E0,8.5E1,0.E0));
#71=LINE('',#70,#69);
#72=CARTESIAN_POINT('',(0.E0,8.5E1,0.E0));
#73=DIRECTION('',(0.E0,0.E0,-1.E0));
#74=DIRECTION('',(-1.E0,0.E0,0.E0));
#75=AXIS2_PLACEMENT_3D('',#72,#73,#74);
#77=DIRECTION('',(0.E0,1.E0,0.E0));
#78=VECTOR('',#77,1.6E1);
#79=CARTESIAN_POINT('',(-4.5E0,6.9E1,0.E0));
#80=LINE('',#79,#78);
#81=DIRECTION('',(0.E0,0.E0,-1.E0));
#82=VECTOR('',#81,6.E0);
#83=CARTESIAN_POINT('',(-1.5E1,0.E0,0.E0));
#84=LINE('',#83,#82);
#85=DIRECTION('',(0.E0,0.E0,-1.E0));
#86=VECTOR('',#85,6.E0);
#87=CARTESIAN_POINT('',(1.5E1,0.E0,0.E0));
#88=LINE('',#87,#86);
#89=DIRECTION('',(0.E0,0.E0,-1.E0));
#90=VECTOR('',#89,6.E0);
#91=CARTESIAN_POINT('',(1.5E1,8.5E1,0.E0));
#92=LINE('',#91,#90);
#93=DIRECTION('',(0.E0,0.E0,-1.E0));
#94=VECTOR('',#93,6.E0);
#95=CARTESIAN_POINT('',(-1.5E1,8.5E1,0.E0));
#96=LINE('',#95,#94);
#97=DIRECTION('',(1.E0,0.E0,0.E0));
#98=VECTOR('',#97,3.E1);
#99=CARTESIAN_POINT('',(-1.5E1,0.E0,-6.E0));
#100=LINE('',#99,#98);
#101=DIRECTION('',(0.E0,1.E0,0.E0));
#102=VECTOR('',#101,8.5E1);
#103=CARTESIAN_POINT('',(1.5E1,0.E0,-6.E0));
#104=LINE('',#103,#102);
#105=CARTESIAN_POINT('',(0.E0,8.5E1,-6.E0));
#106=DIRECTION('',(0.E0,0.E0,1.E0));
#107=DIRECTION('',(1.E0,0.E0,0.E0));
#108=AXIS2_PLACEMENT_3D('',#105,#106,#107);
#110=DIRECTION('',(0.E0,-1.E0,0.E0));
#111=VECTOR('',#110,8.5E1);
#112=CARTESIAN_POINT('',(-1.5E1,8.5E1,-6.E0));
#113=LINE('',#112,#111);
#114=CARTESIAN_POINT('',(0.E0,6.9E1,-6.E0));
#115=DIRECTION('',(0.E0,0.E0,-1.E0));
#116=DIRECTION('',(1.E0,0.E0,0.E0));
#117=AXIS2_PLACEMENT_3D('',#114,#115,#116);
#119=DIRECTION('',(0.E0,1.E0,0.E0));
#120=VECTOR('',#119,1.6E1);
#121=CARTESIAN_POINT('',(-4.5E0,6.9E1,-6.E0));
#122=LINE('',#121,#120);
#123=CARTESIAN_POINT('',(0.E0,8.5E1,-6.E0));
#124=DIRECTION('',(0.E0,0.E0,-1.E0));
#125=DIRECTION('',(-1.E0,0.E0,0.E0));
#126=AXIS2_PLACEMENT_3D('',#123,#124,#125);
#128=DIRECTION('',(0.E0,-1.E0,0.E0));
#129=VECTOR('',#128,1.6E1);
#130=CARTESIAN_POINT('',(4.5E0,8.5E1,-6.E0));
#131=LINE('',#130,#129);
#132=DIRECTION('',(0.E0,0.E0,-1.E0));
#133=VECTOR('',#132,6.E0);
#134=CARTESIAN_POINT('',(4.5E0,6.9E1,0.E0));
#135=LINE('',#134,#133);
#136=DIRECTION('',(0.E0,0.E0,-1.E0));
#137=VECTOR('',#136,6.E0);
#138=CARTESIAN_POINT('',(-4.5E0,6.9E1,0.E0));
#139=LINE('',#138,#137);
#140=DIRECTION('',(0.E0,0.E0,-1.E0));
#141=VECTOR('',#140,6.E0);
#142=CARTESIAN_POINT('',(-4.5E0,8.5E1,0.E0));
#143=LINE('',#142,#141);
#144=DIRECTION('',(0.E0,0.E0,-1.E0));
#145=VECTOR('',#144,6.E0);
#146=CARTESIAN_POINT('',(4.5E0,8.5E1,0.E0));
#147=LINE('',#146,#145);
#148=CARTESIAN_POINT('',(-1.5E1,0.E0,0.E0));
#149=CARTESIAN_POINT('',(1.5E1,0.E0,0.E0));
#150=VERTEX_POINT('',#148);
#151=VERTEX_POINT('',#149);
#152=CARTESIAN_POINT('',(1.5E1,8.5E1,0.E0));
#153=VERTEX_POINT('',#152);
#154=CARTESIAN_POINT('',(-1.5E1,8.5E1,0.E0));
#155=VERTEX_POINT('',#154);
#156=CARTESIAN_POINT('',(-4.5E0,6.9E1,0.E0));
#157=CARTESIAN_POINT('',(-4.5E0,8.5E1,0.E0));
#158=VERTEX_POINT('',#156);
#159=VERTEX_POINT('',#157);
#160=CARTESIAN_POINT('',(4.5E0,8.5E1,0.E0));
#161=VERTEX_POINT('',#160);
#162=CARTESIAN_POINT('',(4.5E0,6.9E1,0.E0));
#163=VERTEX_POINT('',#162);
#164=CARTESIAN_POINT('',(-1.5E1,0.E0,-6.E0));
#165=CARTESIAN_POINT('',(1.5E1,0.E0,-6.E0));
#166=VERTEX_POINT('',#164);
#167=VERTEX_POINT('',#165);
#168=CARTESIAN_POINT('',(1.5E1,8.5E1,-6.E0));
#169=VERTEX_POINT('',#168);
#170=CARTESIAN_POINT('',(-1.5E1,8.5E1,-6.E0));
#171=VERTEX_POINT('',#170);
#172=CARTESIAN_POINT('',(-4.5E0,6.9E1,-6.E0));
#173=CARTESIAN_POINT('',(-4.5E0,8.5E1,-6.E0));
#174=VERTEX_POINT('',#172);
#175=VERTEX_POINT('',#173);
#176=CARTESIAN_POINT('',(4.5E0,8.5E1,-6.E0));
#177=VERTEX_POINT('',#176);
#178=CARTESIAN_POINT('',(4.5E0,6.9E1,-6.E0));
#179=VERTEX_POINT('',#178);
#180=CARTESIAN_POINT('',(0.E0,0.E0,0.E0));
#181=DIRECTION('',(0.E0,0.E0,1.E0));
#182=DIRECTION('',(1.E0,0.E0,0.E0));
#183=AXIS2_PLACEMENT_3D('',#180,#181,#182);
#184=PLANE('',#183);
#186=ORIENTED_EDGE('',*,*,#185,.F.);
#188=ORIENTED_EDGE('',*,*,#187,.F.);
#190=ORIENTED_EDGE('',*,*,#189,.F.);
#192=ORIENTED_EDGE('',*,*,#191,.F.);
#193=EDGE_LOOP('',(#186,#188,#190,#192));
#194=FACE_OUTER_BOUND('',#193,.F.);
#196=ORIENTED_EDGE('',*,*,#195,.F.);
#198=ORIENTED_EDGE('',*,*,#197,.F.);
#200=ORIENTED_EDGE('',*,*,#199,.F.);
#202=ORIENTED_EDGE('',*,*,#201,.F.);
#203=EDGE_LOOP('',(#196,#198,#200,#202));
#204=FACE_BOUND('',#203,.F.);
#206=CARTESIAN_POINT('',(-1.5E1,0.E0,0.E0));
#207=DIRECTION('',(0.E0,-1.E0,0.E0));
#208=DIRECTION('',(1.E0,0.E0,0.E0));
#209=AXIS2_PLACEMENT_3D('',#206,#207,#208);
#210=PLANE('',#209);
#211=ORIENTED_EDGE('',*,*,#185,.T.);
#213=ORIENTED_EDGE('',*,*,#212,.T.);
#215=ORIENTED_EDGE('',*,*,#214,.F.);
#217=ORIENTED_EDGE('',*,*,#216,.F.);
#218=EDGE_LOOP('',(#211,#213,#215,#217));
#219=FACE_OUTER_BOUND('',#218,.F.);
#221=CARTESIAN_POINT('',(1.5E1,0.E0,0.E0));
#222=DIRECTION('',(1.E0,0.E0,0.E0));
#223=DIRECTION('',(0.E0,1.E0,0.E0));
#224=AXIS2_PLACEMENT_3D('',#221,#222,#223);
#225=PLANE('',#224);
#226=ORIENTED_EDGE('',*,*,#191,.T.);
#228=ORIENTED_EDGE('',*,*,#227,.T.);
#230=ORIENTED_EDGE('',*,*,#229,.F.);
#231=ORIENTED_EDGE('',*,*,#212,.F.);
#232=EDGE_LOOP('',(#226,#228,#230,#231));
#233=FACE_OUTER_BOUND('',#232,.F.);
#235=CARTESIAN_POINT('',(0.E0,8.5E1,0.E0));
#236=DIRECTION('',(0.E0,0.E0,1.E0));
#237=DIRECTION('',(1.E0,0.E0,0.E0));
#238=AXIS2_PLACEMENT_3D('',#235,#236,#237);
#239=CYLINDRICAL_SURFACE('',#238,1.5E1);
#240=ORIENTED_EDGE('',*,*,#189,.T.);
#242=ORIENTED_EDGE('',*,*,#241,.T.);
#244=ORIENTED_EDGE('',*,*,#243,.F.);
#245=ORIENTED_EDGE('',*,*,#227,.F.);
#246=EDGE_LOOP('',(#240,#242,#244,#245));
#247=FACE_OUTER_BOUND('',#246,.F.);
#249=CARTESIAN_POINT('',(-1.5E1,8.5E1,0.E0));
#250=DIRECTION('',(-1.E0,0.E0,0.E0));
#251=DIRECTION('',(0.E0,-1.E0,0.E0));
#252=AXIS2_PLACEMENT_3D('',#249,#250,#251);
#253=PLANE('',#252);
#254=ORIENTED_EDGE('',*,*,#187,.T.);
#255=ORIENTED_EDGE('',*,*,#216,.T.);
#257=ORIENTED_EDGE('',*,*,#256,.F.);
#258=ORIENTED_EDGE('',*,*,#241,.F.);
#259=EDGE_LOOP('',(#254,#255,#257,#258));
#260=FACE_OUTER_BOUND('',#259,.F.);
#262=CARTESIAN_POINT('',(0.E0,0.E0,-6.E0));
#263=DIRECTION('',(0.E0,0.E0,1.E0));
#264=DIRECTION('',(1.E0,0.E0,0.E0));
#265=AXIS2_PLACEMENT_3D('',#262,#263,#264);
#266=PLANE('',#265);
#267=ORIENTED_EDGE('',*,*,#214,.T.);
#268=ORIENTED_EDGE('',*,*,#229,.T.);
#269=ORIENTED_EDGE('',*,*,#243,.T.);
#270=ORIENTED_EDGE('',*,*,#256,.T.);
#271=EDGE_LOOP('',(#267,#268,#269,#270));
#272=FACE_OUTER_BOUND('',#271,.F.);
#274=ORIENTED_EDGE('',*,*,#273,.T.);
#276=ORIENTED_EDGE('',*,*,#275,.T.);
#278=ORIENTED_EDGE('',*,*,#277,.T.);
#280=ORIENTED_EDGE('',*,*,#279,.T.);
#281=EDGE_LOOP('',(#274,#276,#278,#280));
#282=FACE_BOUND('',#281,.F.);
#284=CARTESIAN_POINT('',(0.E0,6.9E1,0.E0));
#285=DIRECTION('',(0.E0,0.E0,1.E0));
#286=DIRECTION('',(1.E0,0.E0,0.E0));
#287=AXIS2_PLACEMENT_3D('',#284,#285,#286);
#288=CYLINDRICAL_SURFACE('',#287,4.5E0);
#289=ORIENTED_EDGE('',*,*,#195,.T.);
#291=ORIENTED_EDGE('',*,*,#290,.T.);
#292=ORIENTED_EDGE('',*,*,#273,.F.);
#294=ORIENTED_EDGE('',*,*,#293,.F.);
#295=EDGE_LOOP('',(#289,#291,#292,#294));
#296=FACE_OUTER_BOUND('',#295,.F.);
#298=CARTESIAN_POINT('',(-4.5E0,6.9E1,0.E0));
#299=DIRECTION('',(1.E0,0.E0,0.E0));
#300=DIRECTION('',(0.E0,1.E0,0.E0));
#301=AXIS2_PLACEMENT_3D('',#298,#299,#300);
#302=PLANE('',#301);
#303=ORIENTED_EDGE('',*,*,#201,.T.);
#305=ORIENTED_EDGE('',*,*,#304,.T.);
#306=ORIENTED_EDGE('',*,*,#275,.F.);
#307=ORIENTED_EDGE('',*,*,#290,.F.);
#308=EDGE_LOOP('',(#303,#305,#306,#307));
#309=FACE_OUTER_BOUND('',#308,.F.);
#311=CARTESIAN_POINT('',(0.E0,8.5E1,0.E0));
#312=DIRECTION('',(0.E0,0.E0,1.E0));
#313=DIRECTION('',(1.E0,0.E0,0.E0));
#314=AXIS2_PLACEMENT_3D('',#311,#312,#313);
#315=CYLINDRICAL_SURFACE('',#314,4.5E0);
#316=ORIENTED_EDGE('',*,*,#199,.T.);
#318=ORIENTED_EDGE('',*,*,#317,.T.);
#319=ORIENTED_EDGE('',*,*,#277,.F.);
#320=ORIENTED_EDGE('',*,*,#304,.F.);
#321=EDGE_LOOP('',(#316,#318,#319,#320));
#322=FACE_OUTER_BOUND('',#321,.F.);
#324=CARTESIAN_POINT('',(4.5E0,8.5E1,0.E0));
#325=DIRECTION('',(-1.E0,0.E0,0.E0));
#326=DIRECTION('',(0.E0,-1.E0,0.E0));
#327=AXIS2_PLACEMENT_3D('',#324,#325,#326);
#328=PLANE('',#327);
#329=ORIENTED_EDGE('',*,*,#197,.T.);
#330=ORIENTED_EDGE('',*,*,#293,.T.);
#331=ORIENTED_EDGE('',*,*,#279,.F.);
#332=ORIENTED_EDGE('',*,*,#317,.F.);
#333=EDGE_LOOP('',(#329,#330,#331,#332));
#334=FACE_OUTER_BOUND('',#333,.F.);
#336=CLOSED_SHELL('',(#205,#220,#234,#248,#261,#283,#297,#310,#323,#335));
#337=MANIFOLD_SOLID_BREP('',#336);
#338=CARTESIAN_POINT('',(0.E0,0.E0,0.E0));
#339=DIRECTION('',(0.E0,0.E0,1.E0));
#340=DIRECTION('',(1.E0,0.E0,0.E0));
#341=AXIS2_PLACEMENT_3D('X0Y0Z0',#338,#339,#340);
#342=DRAUGHTING_PRE_DEFINED_CURVE_FONT('continuous');
#343=CURVE_STYLE('',#342,POSITIVE_LENGTH_MEASURE(2.E-2),#18);
#344=PRESENTATION_STYLE_ASSIGNMENT((#343));
#345=STYLED_ITEM('',(#344),#341);
#346=CARTESIAN_POINT('',(0.E0,0.E0,0.E0));
#347=DIRECTION('',(1.E0,0.E0,0.E0));
#348=DIRECTION('',(0.E0,1.E0,0.E0));
#349=AXIS2_PLACEMENT_3D('',#346,#347,#348);
#350=PLANE('RECHTS',#349);
#351=CARTESIAN_POINT('',(0.E0,0.E0,0.E0));
#352=DIRECTION('',(0.E0,1.E0,0.E0));
#353=DIRECTION('',(0.E0,0.E0,1.E0));
#354=AXIS2_PLACEMENT_3D('',#351,#352,#353);
#355=PLANE('OBEN',#354);
#356=CARTESIAN_POINT('',(0.E0,0.E0,0.E0));
#357=DIRECTION('',(0.E0,0.E0,1.E0));
#358=DIRECTION('',(1.E0,0.E0,0.E0));
#359=AXIS2_PLACEMENT_3D('',#356,#357,#358);
#360=PLANE('VORNE',#359);
#361=DIRECTION('',(-1.E0,0.E0,0.E0));
#362=VECTOR('',#361,3.E1);
#363=CARTESIAN_POINT('',(1.5E1,0.E0,0.E0));
#364=LINE('',#363,#362);
#366=CURVE_STYLE('',#342,POSITIVE_LENGTH_MEASURE(2.E-2),#39);
#367=PRESENTATION_STYLE_ASSIGNMENT((#366));
#368=STYLED_ITEM('',(#367),#365);
#369=DIRECTION('',(0.E0,-1.E0,0.E0));
#370=VECTOR('',#369,1.E2);
#371=CARTESIAN_POINT('',(0.E0,1.E2,0.E0));
#372=LINE('',#371,#370);
#374=CURVE_STYLE('',#342,POSITIVE_LENGTH_MEASURE(2.E-2),#39);
#375=PRESENTATION_STYLE_ASSIGNMENT((#374));
#376=STYLED_ITEM('',(#375),#373);
#377=DIRECTION('',(0.E0,0.E0,-1.E0));
#378=VECTOR('',#377,6.E0);
#379=CARTESIAN_POINT('',(0.E0,0.E0,0.E0));
#380=LINE('',#379,#378);
#382=CURVE_STYLE('',#342,POSITIVE_LENGTH_MEASURE(2.E-2),#39);
#383=PRESENTATION_STYLE_ASSIGNMENT((#382));
#384=STYLED_ITEM('',(#383),#381);
#385=PRESENTATION_LAYER_ASSIGNMENT('S-ACHSEN','',(#365,#373,#381));
#386=PRESENTATION_LAYER_ASSIGNMENT('S-EBENEN','',(#350,#355,#360));
#387=PRESENTATION_LAYER_ASSIGNMENT('S-KOORDSYS','',(#341));
#388=INVISIBILITY((#385,#387));
#391=PLANE_ANGLE_MEASURE_WITH_UNIT(PLANE_ANGLE_MEASURE(1.745329251994E-2),#390);
#392=(CONVERSION_BASED_UNIT('DEGREE',#391)NAMED_UNIT(*)PLANE_ANGLE_UNIT());
#394=UNCERTAINTY_MEASURE_WITH_UNIT(LENGTH_MEASURE(5.E-3),#389,
'distance_accuracy_value',
'Maximum model space distance between geometric entities at asserted connectivities');
#398=CARTESIAN_POINT('',(0.E0,0.E0,0.E0));
#399=DIRECTION('',(0.E0,0.E0,1.E0));
#400=DIRECTION('',(1.E0,0.E0,0.E0));
#403=SHAPE_REPRESENTATION_RELATIONSHIP('','',#402,#396);
#404=CONSTRUCTIVE_GEOMETRY_REPRESENTATION_RELATIONSHIP('','',#402,#397);
#405=MECHANICAL_DESIGN_GEOMETRIC_PRESENTATION_REPRESENTATION('',(#345,#368,#376,
#384),#395);
#406=APPLICATION_CONTEXT('automotive_design');
#407=APPLICATION_PROTOCOL_DEFINITION('international standard',
'automotive_design',2001,#406);
#408=PRODUCT_DEFINITION_CONTEXT('part definition',#406,'design');
#409=PRODUCT_CONTEXT('',#406,'mechanical');
#410=PRODUCT('2977','2977','NOT SPECIFIED',(#409));
#411=PRODUCT_DEFINITION_FORMATION('3','LAST_VERSION',#410);
#419=DERIVED_UNIT_ELEMENT(#418,2.E0);
#420=DERIVED_UNIT((#419));
#421=MEASURE_REPRESENTATION_ITEM('surface area measure',AREA_MEASURE(
7.236013186704E3),#420);
#426=DERIVED_UNIT_ELEMENT(#425,3.E0);
#427=DERIVED_UNIT((#426));
#428=MEASURE_REPRESENTATION_ITEM('volume measure',VOLUME_MEASURE(
1.617487179131E4),#427);
#432=CARTESIAN_POINT('centre point',(-3.451738295868E-6,4.624949877262E1,
-3.E0));
#437=DERIVED_UNIT_ELEMENT(#436,2.E0);
#438=DERIVED_UNIT((#437));
#439=MEASURE_REPRESENTATION_ITEM('surface area measure',AREA_MEASURE(
7.236013186704E3),#438);
#444=DERIVED_UNIT_ELEMENT(#443,3.E0);
#445=DERIVED_UNIT((#444));
#446=MEASURE_REPRESENTATION_ITEM('volume measure',VOLUME_MEASURE(
1.617487179131E4),#445);
#450=CARTESIAN_POINT('centre point',(-3.451738295868E-6,4.624949877262E1,
-3.E0));
#455=PRODUCT_RELATED_PRODUCT_CATEGORY('part','',(#410));
#456=(GEOMETRIC_REPRESENTATION_CONTEXT(2)PARAMETRIC_REPRESENTATION_CONTEXT()REPRESENTATION_CONTEXT('2D coordinate system context','2'));
#457=DRAUGHTING_MODEL('Default',(#469,#470,#486),#456);
#458=PRESENTATION_VIEW('Default',(#477,#490),#456);
#459=CARTESIAN_POINT('',(0.E0,0.E0,0.E0));
#460=CARTESIAN_POINT('',(-6.893698092615E1,-5.773275495808E1,2.122835097183E2));
#461=DIRECTION('',(0.E0,0.E0,1.E0));
#462=DIRECTION('',(1.E0,0.E0,0.E0));
#463=AXIS2_PLACEMENT_3D('',#460,#461,#462);
#465=VIEW_VOLUME(.PARALLEL.,#459,2.122835097183E2,2.122835097183E2,.T.,0.E0,.F.,
.T.,#464);
#466=CARTESIAN_POINT('',(-1.632044861443E2,7.446891475398E1,1.448045001729E2));
#467=DIRECTION('',(-4.095760221445E-1,5.735764363510E-1,7.094064799162E-1));
#468=DIRECTION('',(8.660254037844E-1,0.E0,5.E-1));
#469=AXIS2_PLACEMENT_3D('',#466,#467,#468);
#470=CAMERA_MODEL_D3_WITH_HLHSR('DEFAULT',#469,#465,.F.);
#472=CARTESIAN_POINT('',(-5.062001942380E2,-4.239282222843E2,1.558785319712E3));
#473=DIRECTION('',(0.E0,0.E0,1.E0));
#474=DIRECTION('',(1.E0,0.E0,0.E0));
#475=AXIS2_PLACEMENT_3D('',#472,#473,#474);
#477=(CAMERA_IMAGE()CAMERA_IMAGE_3D_WITH_SCALE()GEOMETRIC_REPRESENTATION_ITEM()MAPPED_ITEM(#471,#476)REPRESENTATION_ITEM(''));
#478=CARTESIAN_POINT('',(-6.893698092615E1,-5.773275495808E1,2.122835097183E2));
#479=DIRECTION('',(0.E0,0.E0,1.E0));
#480=DIRECTION('',(1.E0,0.E0,0.E0));
#481=AXIS2_PLACEMENT_3D('',#478,#479,#480);
#482=REPRESENTATION_MAP(#481,#402);
#483=CARTESIAN_POINT('',(0.E0,0.E0));
#484=DIRECTION('',(1.E0,0.E0));
#485=AXIS2_PLACEMENT_2D('',#483,#484);
#486=MAPPED_ITEM('',#482,#485);
#487=CARTESIAN_POINT('',(-6.893698092615E1,-5.773275495808E1,2.122835097183E2));
#488=DIRECTION('',(0.E0,0.E0,1.E0));
#489=DIRECTION('',(1.E0,0.E0,0.E0));
#490=AXIS2_PLACEMENT_3D('',#487,#488,#489);
#491=REPRESENTATION_MAP(#490,#458);
#492=CARTESIAN_POINT('',(0.E0,0.E0));
#493=DIRECTION('',(1.E0,0.E0));
#494=AXIS2_PLACEMENT_2D('',#492,#493);
#495=MAPPED_ITEM('',#491,#494);
#497=CARTESIAN_POINT('',(0.E0,0.E0));
#498=DIRECTION('',(1.E0,0.E0));
#499=AXIS2_PLACEMENT_2D('',#497,#498);
#500=PLANAR_BOX('',1.E3,8.4375E2,#499);
#501=PRESENTATION_SIZE(#496,#500);
#502=PRESENTATION_SET();
#503=AREA_IN_SET(#496,#502);
#505=GENERAL_PROPERTY('','MOD_POSITION','user defined attribute');
#506=GENERAL_PROPERTY_ASSOCIATION('user defined attribute','',#505,#504);
#507=DESCRIPTIVE_REPRESENTATION_ITEM('MOD_POSITION','2977');
#511=GENERAL_PROPERTY('','MOD_STUECK','user defined attribute');
#512=GENERAL_PROPERTY_ASSOCIATION('user defined attribute','',#511,#510);
#513=DESCRIPTIVE_REPRESENTATION_ITEM('MOD_STUECK','-');
#517=GENERAL_PROPERTY('','MOD_BENENNUNG','user defined attribute');
#518=GENERAL_PROPERTY_ASSOCIATION('user defined attribute','',#517,#516);
#519=DESCRIPTIVE_REPRESENTATION_ITEM('MOD_BENENNUNG','-');
#523=GENERAL_PROPERTY('','MOD_ABMESSUNGEN','user defined attribute');
#524=GENERAL_PROPERTY_ASSOCIATION('user defined attribute','',#523,#522);
#525=DESCRIPTIVE_REPRESENTATION_ITEM('MOD_ABMESSUNGEN','-');
#529=GENERAL_PROPERTY('','MOD_MATERIAL','user defined attribute');
#530=GENERAL_PROPERTY_ASSOCIATION('user defined attribute','',#529,#528);
#531=DESCRIPTIVE_REPRESENTATION_ITEM('MOD_MATERIAL','-');
#535=GENERAL_PROPERTY('','MOD_HAERTE','user defined attribute');
#536=GENERAL_PROPERTY_ASSOCIATION('user defined attribute','',#535,#534);
#537=DESCRIPTIVE_REPRESENTATION_ITEM('MOD_HAERTE','- HRC');
#541=GENERAL_PROPERTY('','MOD_LIEFERANT','user defined attribute');
#542=GENERAL_PROPERTY_ASSOCIATION('user defined attribute','',#541,#540);
#543=DESCRIPTIVE_REPRESENTATION_ITEM('MOD_LIEFERANT','-');
#547=GENERAL_PROPERTY('','MOD_WG_NR','user defined attribute');
#548=GENERAL_PROPERTY_ASSOCIATION('user defined attribute','',#547,#546);
#549=DESCRIPTIVE_REPRESENTATION_ITEM('MOD_WG_NR','2977');
#553=GENERAL_PROPERTY('','MOD_WERKZEUGNAME','user defined attribute');
#554=GENERAL_PROPERTY_ASSOCIATION('user defined attribute','',#553,#552);
#555=DESCRIPTIVE_REPRESENTATION_ITEM('MOD_WERKZEUGNAME','-');
#559=GENERAL_PROPERTY('','MOD_WZG_ART_NR','user defined attribute');
#560=GENERAL_PROPERTY_ASSOCIATION('user defined attribute','',#559,#558);
#561=DESCRIPTIVE_REPRESENTATION_ITEM('MOD_WZG_ART_NR','-');
#565=GENERAL_PROPERTY('','MOD_AUFTRAGSNUMMER','user defined attribute');
#566=GENERAL_PROPERTY_ASSOCIATION('user defined attribute','',#565,#564);
#567=DESCRIPTIVE_REPRESENTATION_ITEM('MOD_AUFTRAGSNUMMER','-');
#571=GENERAL_PROPERTY('','MOD_ERSTELLT_VON','user defined attribute');
#572=GENERAL_PROPERTY_ASSOCIATION('user defined attribute','',#571,#570);
#573=DESCRIPTIVE_REPRESENTATION_ITEM('MOD_ERSTELLT_VON','-');
#577=GENERAL_PROPERTY('','MOD_ERSTELLT_TT_MMM_JJJJ','user defined attribute');
#578=GENERAL_PROPERTY_ASSOCIATION('user defined attribute','',#577,#576);
#579=DESCRIPTIVE_REPRESENTATION_ITEM('MOD_ERSTELLT_TT_MMM_JJJJ','-');
#583=GENERAL_PROPERTY('','MOD_GEPRUEFT_VON','user defined attribute');
#584=GENERAL_PROPERTY_ASSOCIATION('user defined attribute','',#583,#582);
#585=DESCRIPTIVE_REPRESENTATION_ITEM('MOD_GEPRUEFT_VON','-');
#589=GENERAL_PROPERTY('','MOD_GEPRUEFT_TT_MMM_JJJJ','user defined attribute');
#590=GENERAL_PROPERTY_ASSOCIATION('user defined attribute','',#589,#588);
#591=DESCRIPTIVE_REPRESENTATION_ITEM('MOD_GEPRUEFT_TT_MMM_JJJJ','-');
#595=GENERAL_PROPERTY('','MOD_REVISIONSSTAND','user defined attribute');
#596=GENERAL_PROPERTY_ASSOCIATION('user defined attribute','',#595,#594);
#597=DESCRIPTIVE_REPRESENTATION_ITEM('MOD_REVISIONSSTAND','1.0');
#601=GENERAL_PROPERTY('','DEFAULT_XHATCH_SPACING','user defined attribute');
#602=GENERAL_PROPERTY_ASSOCIATION('user defined attribute','',#601,#600);
#603=VALUE_REPRESENTATION_ITEM('DEFAULT_XHATCH_SPACING',NUMERIC_MEASURE(1.E1));
#606=DESCRIPTIVE_REPRESENTATION_ITEM('attribute description','Real Number');
#611=GENERAL_PROPERTY('','DEFAULT_XHATCH_ANGLE','user defined attribute');
#612=GENERAL_PROPERTY_ASSOCIATION('user defined attribute','',#611,#610);
#613=VALUE_REPRESENTATION_ITEM('DEFAULT_XHATCH_ANGLE',NUMERIC_MEASURE(4.5E1));
#616=DESCRIPTIVE_REPRESENTATION_ITEM('attribute description','Real Number');
#621=GENERAL_PROPERTY('','MOD_WERKZEUGFOLGE','user defined attribute');
#622=GENERAL_PROPERTY_ASSOCIATION('user defined attribute','',#621,#620);
#623=DESCRIPTIVE_REPRESENTATION_ITEM('MOD_WERKZEUGFOLGE','-');
#626=APPLIED_PRESENTED_ITEM((#412));
#627=PRESENTED_ITEM_REPRESENTATION(#502,#626);
#1=DRAUGHTING_PRE_DEFINED_COLOUR('black');
#2=COLOUR_RGB('',0.E0,5.80808E-1,0.E0);
#3=DRAUGHTING_PRE_DEFINED_COLOUR('green');
#4=COLOUR_RGB('',7.562E-3,8.83838E-1,7.55456E-1);
#5=COLOUR_RGB('',1.71656E-1,1.E0,9.90354E-1);
#6=COLOUR_RGB('',2.5E-1,2.5E-1,2.5E-1);
#7=COLOUR_RGB('',2.78785E-1,3.63292E-1,1.E0);
#8=COLOUR_RGB('',3.13131E-1,1.56566E-1,0.E0);
#9=COLOUR_RGB('',3.91074E-1,3.2627E-2,6.71717E-1);
#10=COLOUR_RGB('',4.29293E-1,2.14646E-1,0.E0);
#11=COLOUR_RGB('',4.51189E-1,9.42007E-1,1.E0);
#12=COLOUR_RGB('',4.77376E-1,5.73903E-1,1.E0);
#13=COLOUR_RGB('',5.E-1,5.E-1,5.E-1);
#14=COLOUR_RGB('',5.4677E-1,1.E0,2.4817E-1);
#15=COLOUR_RGB('',5.60606E-1,2.80303E-1,0.E0);
#16=COLOUR_RGB('',5.67559E-1,1.73861E-1,6.71717E-1);
#17=COLOUR_RGB('',5.85859E-1,4.18374E-1,5.80261E-1);
#18=COLOUR_RGB('',6.E-1,4.E-1,2.E-1);
#19=COLOUR_RGB('',6.11932E-1,7.49956E-1,1.E0);
#20=COLOUR_RGB('',6.35294E-1,6.86275E-1,7.4902E-1);
#21=COLOUR_RGB('',6.46115E-1,3.25748E-1,6.71717E-1);
#22=COLOUR_RGB('',7.46668E-1,9.80688E-1,1.E0);
#23=COLOUR_RGB('',7.46382E-1,1.E0,4.54171E-1);
#24=COLOUR_RGB('',7.92929E-1,1.78969E-1,3.33728E-1);
#25=COLOUR_RGB('',8.E-1,8.E-1,8.E-1);
#26=COLOUR_RGB('',8.15686E-1,7.68627E-1,8.19608E-1);
#27=COLOUR_RGB('',8.15686E-1,8.70588E-1,8.35294E-1);
#28=COLOUR_RGB('',8.15686E-1,9.17647E-1,9.05882E-1);
#29=COLOUR_RGB('',8.48485E-1,4.02346E-1,2.817E-2);
#30=COLOUR_RGB('',8.82353E-1,8.43137E-1,9.09804E-1);
#31=COLOUR_RGB('',8.82353E-1,8.82353E-1,9.13725E-1);
#32=COLOUR_RGB('',8.90196E-1,8.11765E-1,7.80392E-1);
#33=COLOUR_RGB('',9.05882E-1,9.37255E-1,8.7451E-1);
#34=COLOUR_RGB('',1.E0,4.38962E-1,6.5715E-1);
#35=COLOUR_RGB('',1.E0,5.37727E-1,2.0902E-1);
#36=COLOUR_RGB('',1.E0,6.66667E-1,2.4E-1);
#37=COLOUR_RGB('',1.E0,6.66667E-1,5.4E-1);
#38=COLOUR_RGB('',1.E0,7.10751E-1,8.30187E-1);
#39=COLOUR_RGB('',1.E0,8.E-1,2.E-1);
#40=COLOUR_RGB('',1.E0,8.53127E-1,6.03994E-1);
#41=DRAUGHTING_PRE_DEFINED_COLOUR('yellow');
#42=COLOUR_RGB('',1.E0,1.E0,4.31373E-1);
#43=COLOUR_RGB('',1.E0,1.E0,5.88235E-1);
#44=COLOUR_RGB('',1.E0,1.E0,7.84314E-1);
#45=DRAUGHTING_PRE_DEFINED_COLOUR('white');
#58=CIRCLE('',#57,1.5E1);
#67=CIRCLE('',#66,4.5E0);
#76=CIRCLE('',#75,4.5E0);
#109=CIRCLE('',#108,1.5E1);
#118=CIRCLE('',#117,4.5E0);
#127=CIRCLE('',#126,4.5E0);
#185=EDGE_CURVE('',#150,#151,#49,.T.);
#187=EDGE_CURVE('',#155,#150,#53,.T.);
#189=EDGE_CURVE('',#153,#155,#58,.T.);
#191=EDGE_CURVE('',#151,#153,#62,.T.);
#195=EDGE_CURVE('',#163,#158,#67,.T.);
#197=EDGE_CURVE('',#161,#163,#71,.T.);
#199=EDGE_CURVE('',#159,#161,#76,.T.);
#201=EDGE_CURVE('',#158,#159,#80,.T.);
#205=ADVANCED_FACE('',(#194,#204),#184,.T.);
#212=EDGE_CURVE('',#151,#167,#88,.T.);
#214=EDGE_CURVE('',#166,#167,#100,.T.);
#216=EDGE_CURVE('',#150,#166,#84,.T.);
#220=ADVANCED_FACE('',(#219),#210,.T.);
#227=EDGE_CURVE('',#153,#169,#92,.T.);
#229=EDGE_CURVE('',#167,#169,#104,.T.);
#234=ADVANCED_FACE('',(#233),#225,.T.);
#241=EDGE_CURVE('',#155,#171,#96,.T.);
#243=EDGE_CURVE('',#169,#171,#109,.T.);
#248=ADVANCED_FACE('',(#247),#239,.T.);
#256=EDGE_CURVE('',#171,#166,#113,.T.);
#261=ADVANCED_FACE('',(#260),#253,.T.);
#273=EDGE_CURVE('',#179,#174,#118,.T.);
#275=EDGE_CURVE('',#174,#175,#122,.T.);
#277=EDGE_CURVE('',#175,#177,#127,.T.);
#279=EDGE_CURVE('',#177,#179,#131,.T.);
#283=ADVANCED_FACE('',(#272,#282),#266,.F.);
#290=EDGE_CURVE('',#158,#174,#139,.T.);
#293=EDGE_CURVE('',#163,#179,#135,.T.);
#297=ADVANCED_FACE('',(#296),#288,.F.);
#304=EDGE_CURVE('',#159,#175,#143,.T.);
#310=ADVANCED_FACE('',(#309),#302,.T.);
#317=EDGE_CURVE('',#161,#177,#147,.T.);
#323=ADVANCED_FACE('',(#322),#315,.F.);
#335=ADVANCED_FACE('',(#334),#328,.T.);
#365=TRIMMED_CURVE('X-ACHSE',#364,(PARAMETER_VALUE(0.E0)),(PARAMETER_VALUE
(1.E0)),.T.,.UNSPECIFIED.);
#373=TRIMMED_CURVE('Y-ACHSE',#372,(PARAMETER_VALUE(0.E0)),(PARAMETER_VALUE
(1.E0)),.T.,.UNSPECIFIED.);
#381=TRIMMED_CURVE('Z-ACHSE',#380,(PARAMETER_VALUE(0.E0)),(PARAMETER_VALUE
(1.E0)),.T.,.UNSPECIFIED.);
#389=(LENGTH_UNIT()NAMED_UNIT(*)SI_UNIT(.MILLI.,.METRE.));
#390=(NAMED_UNIT(*)PLANE_ANGLE_UNIT()SI_UNIT($,.RADIAN.));
#393=(NAMED_UNIT(*)SI_UNIT($,.STERADIAN.)SOLID_ANGLE_UNIT());
#395=(GEOMETRIC_REPRESENTATION_CONTEXT(3)GLOBAL_UNCERTAINTY_ASSIGNED_CONTEXT((
#394))GLOBAL_UNIT_ASSIGNED_CONTEXT((#389,#392,#393))REPRESENTATION_CONTEXT
('ID1','3'));
#396=ADVANCED_BREP_SHAPE_REPRESENTATION('',(#337),#395);
#397=CONSTRUCTIVE_GEOMETRY_REPRESENTATION('supplemental geometry',(#341,#350,
#355,#360,#365,#373,#381),#395);
#401=AXIS2_PLACEMENT_3D('',#398,#399,#400);
#402=SHAPE_REPRESENTATION('',(#401),#395);
#412=PRODUCT_DEFINITION('part definition','',#411,#408);
#413=PRODUCT_DEFINITION_SHAPE('','SHAPE FOR 2977.',#412);
#414=SHAPE_ASPECT('','solid data associated with 2977',#413,.F.);
#415=PROPERTY_DEFINITION('',
'shape for solid data with which properties are associated',#414);
#416=SHAPE_REPRESENTATION('',(#337),#395);
#417=SHAPE_DEFINITION_REPRESENTATION(#415,#416);
#418=(LENGTH_UNIT()NAMED_UNIT(*)SI_UNIT(.MILLI.,.METRE.));
#422=PROPERTY_DEFINITION('geometric validation property','area of 2977',#414);
#423=REPRESENTATION('surface area',(#421),#395);
#424=PROPERTY_DEFINITION_REPRESENTATION(#422,#423);
#425=(LENGTH_UNIT()NAMED_UNIT(*)SI_UNIT(.MILLI.,.METRE.));
#429=PROPERTY_DEFINITION('geometric validation property','volume of 2977',#414);
#430=REPRESENTATION('volume',(#428),#395);
#431=PROPERTY_DEFINITION_REPRESENTATION(#429,#430);
#433=PROPERTY_DEFINITION('geometric validation property','centroid of 2977',
#414);
#434=REPRESENTATION('centroid',(#432),#395);
#435=PROPERTY_DEFINITION_REPRESENTATION(#433,#434);
#436=(LENGTH_UNIT()NAMED_UNIT(*)SI_UNIT(.MILLI.,.METRE.));
#440=PROPERTY_DEFINITION('geometric validation property','area of 2977',#413);
#441=REPRESENTATION('surface area',(#439),#395);
#442=PROPERTY_DEFINITION_REPRESENTATION(#440,#441);
#443=(LENGTH_UNIT()NAMED_UNIT(*)SI_UNIT(.MILLI.,.METRE.));
#447=PROPERTY_DEFINITION('geometric validation property','volume of 2977',#413);
#448=REPRESENTATION('volume',(#446),#395);
#449=PROPERTY_DEFINITION_REPRESENTATION(#447,#448);
#451=PROPERTY_DEFINITION('geometric validation property','centroid of 2977',
#413);
#452=REPRESENTATION('centroid',(#450),#395);
#453=PROPERTY_DEFINITION_REPRESENTATION(#451,#452);
#454=SHAPE_DEFINITION_REPRESENTATION(#413,#402);
#464=PLANAR_BOX('',1.361852123149E2,1.149062728907E2,#463);
#471=CAMERA_USAGE(#470,#457);
#476=PLANAR_BOX('',1.E3,8.4375E2,#475);
#496=PRESENTATION_AREA('',(#495,#500),#456);
#504=PROPERTY_DEFINITION('MOD_POSITION','user defined attribute',#412);
#508=REPRESENTATION('',(#507),#395);
#509=PROPERTY_DEFINITION_REPRESENTATION(#504,#508);
#510=PROPERTY_DEFINITION('MOD_STUECK','user defined attribute',#412);
#514=REPRESENTATION('',(#513),#395);
#515=PROPERTY_DEFINITION_REPRESENTATION(#510,#514);
#516=PROPERTY_DEFINITION('MOD_BENENNUNG','user defined attribute',#412);
#520=REPRESENTATION('',(#519),#395);
#521=PROPERTY_DEFINITION_REPRESENTATION(#516,#520);
#522=PROPERTY_DEFINITION('MOD_ABMESSUNGEN','user defined attribute',#412);
#526=REPRESENTATION('',(#525),#395);
#527=PROPERTY_DEFINITION_REPRESENTATION(#522,#526);
#528=PROPERTY_DEFINITION('MOD_MATERIAL','user defined attribute',#412);
#532=REPRESENTATION('',(#531),#395);
#533=PROPERTY_DEFINITION_REPRESENTATION(#528,#532);
#534=PROPERTY_DEFINITION('MOD_HAERTE','user defined attribute',#412);
#538=REPRESENTATION('',(#537),#395);
#539=PROPERTY_DEFINITION_REPRESENTATION(#534,#538);
#540=PROPERTY_DEFINITION('MOD_LIEFERANT','user defined attribute',#412);
#544=REPRESENTATION('',(#543),#395);
#545=PROPERTY_DEFINITION_REPRESENTATION(#540,#544);
#546=PROPERTY_DEFINITION('MOD_WG_NR','user defined attribute',#412);
#550=REPRESENTATION('',(#549),#395);
#551=PROPERTY_DEFINITION_REPRESENTATION(#546,#550);
#552=PROPERTY_DEFINITION('MOD_WERKZEUGNAME','user defined attribute',#412);
#556=REPRESENTATION('',(#555),#395);
#557=PROPERTY_DEFINITION_REPRESENTATION(#552,#556);
#558=PROPERTY_DEFINITION('MOD_WZG_ART_NR','user defined attribute',#412);
#562=REPRESENTATION('',(#561),#395);
#563=PROPERTY_DEFINITION_REPRESENTATION(#558,#562);
#564=PROPERTY_DEFINITION('MOD_AUFTRAGSNUMMER','user defined attribute',#412);
#568=REPRESENTATION('',(#567),#395);
#569=PROPERTY_DEFINITION_REPRESENTATION(#564,#568);
#570=PROPERTY_DEFINITION('MOD_ERSTELLT_VON','user defined attribute',#412);
#574=REPRESENTATION('',(#573),#395);
#575=PROPERTY_DEFINITION_REPRESENTATION(#570,#574);
#576=PROPERTY_DEFINITION('MOD_ERSTELLT_TT_MMM_JJJJ','user defined attribute',
#412);
#580=REPRESENTATION('',(#579),#395);
#581=PROPERTY_DEFINITION_REPRESENTATION(#576,#580);
#582=PROPERTY_DEFINITION('MOD_GEPRUEFT_VON','user defined attribute',#412);
#586=REPRESENTATION('',(#585),#395);
#587=PROPERTY_DEFINITION_REPRESENTATION(#582,#586);
#588=PROPERTY_DEFINITION('MOD_GEPRUEFT_TT_MMM_JJJJ','user defined attribute',
#412);
#592=REPRESENTATION('',(#591),#395);
#593=PROPERTY_DEFINITION_REPRESENTATION(#588,#592);
#594=PROPERTY_DEFINITION('MOD_REVISIONSSTAND','user defined attribute',#412);
#598=REPRESENTATION('',(#597),#395);
#599=PROPERTY_DEFINITION_REPRESENTATION(#594,#598);
#600=PROPERTY_DEFINITION('DEFAULT_XHATCH_SPACING','user defined attribute',
#412);
#604=REPRESENTATION('',(#603),#395);
#605=PROPERTY_DEFINITION_REPRESENTATION(#600,#604);
#607=REPRESENTATION('',(#606),#395);
#608=PROPERTY_DEFINITION('attribute type designation','Real Number',#601);
#609=PROPERTY_DEFINITION_REPRESENTATION(#608,#607);
#610=PROPERTY_DEFINITION('DEFAULT_XHATCH_ANGLE','user defined attribute',#412);
#614=REPRESENTATION('',(#613),#395);
#615=PROPERTY_DEFINITION_REPRESENTATION(#610,#614);
#617=REPRESENTATION('',(#616),#395);
#618=PROPERTY_DEFINITION('attribute type designation','Real Number',#611);
#619=PROPERTY_DEFINITION_REPRESENTATION(#618,#617);
#620=PROPERTY_DEFINITION('MOD_WERKZEUGFOLGE','user defined attribute',#412);
#624=REPRESENTATION('',(#623),#395);
#625=PROPERTY_DEFINITION_REPRESENTATION(#620,#624);
ENDSEC;
END-ISO-10303-21;
